  0
SECTION
  2
HEADER
  9
$ACADVER
  1
AC1015
  9
$ACADMAINTVER
 70
     6
  9
$DWGCODEPAGE
  3
ANSI_1252
  9
$INSBASE
 10
0.0
 20
0.0
 30
0.0
  9
$EXTMIN
 10
0.0
 20
0.0
 30
0.0
  9
$EXTMAX
 10
982.431885
 20
715.687622
 30
2.0
  9
$LIMMIN
 10
0.0
 20
0.0
  9
$LIMMAX
 10
420.0
 20
297.0
  9
$ORTHOMODE
 70
     0
  9
$REGENMODE
 70
     1
  9
$FILLMODE
 70
     1
  9
$QTEXTMODE
 70
     0
  9
$MIRRTEXT
 70
     1
  9
$LTSCALE
 40
1.0
  9
$ATTMODE
 70
     1
  9
$TEXTSIZE
 40
2.5
  9
$TRACEWID
 40
1.0
  9
$TEXTSTYLE
  7
Standard
  9
$CLAYER
  8
0
  9
$CELTYPE
  6
ByLayer
  9
$CECOLOR
 62
   256
  9
$CELTSCALE
 40
1.0
  9
$DISPSILH
 70
     0
  9
$DIMSCALE
 40
1.0
  9
$DIMASZ
 40
2.5
  9
$DIMEXO
 40
0.625
  9
$DIMDLI
 40
3.75
  9
$DIMRND
 40
0.0
  9
$DIMDLE
 40
0.0
  9
$DIMEXE
 40
1.25
  9
$DIMTP
 40
0.0
  9
$DIMTM
 40
0.0
  9
$DIMTXT
 40
2.5
  9
$DIMCEN
 40
2.5
  9
$DIMTSZ
 40
0.0
  9
$DIMTOL
 70
     0
  9
$DIMLIM
 70
     0
  9
$DIMTIH
 70
     0
  9
$DIMTOH
 70
     0
  9
$DIMSE1
 70
     0
  9
$DIMSE2
 70
     0
  9
$DIMTAD
 70
     1
  9
$DIMZIN
 70
     8
  9
$DIMBLK
  1

  9
$DIMASO
 70
     1
  9
$DIMSHO
 70
     1
  9
$DIMPOST
  1

  9
$DIMAPOST
  1

  9
$DIMALT
 70
     0
  9
$DIMALTD
 70
     3
  9
$DIMALTF
 40
0.03937
  9
$DIMLFAC
 40
1.0
  9
$DIMTOFL
 70
     1
  9
$DIMTVP
 40
0.0
  9
$DIMTIX
 70
     0
  9
$DIMSOXD
 70
     0
  9
$DIMSAH
 70
     0
  9
$DIMBLK1
  1

  9
$DIMBLK2
  1

  9
$DIMSTYLE
  2
Standard
  9
$DIMCLRD
 70
     0
  9
$DIMCLRE
 70
     0
  9
$DIMCLRT
 70
     0
  9
$DIMTFAC
 40
1.0
  9
$DIMGAP
 40
0.625
  9
$DIMJUST
 70
     0
  9
$DIMSD1
 70
     0
  9
$DIMSD2
 70
     0
  9
$DIMTOLJ
 70
     0
  9
$DIMTZIN
 70
     8
  9
$DIMALTZ
 70
     0
  9
$DIMALTTZ
 70
     0
  9
$DIMUPT
 70
     0
  9
$DIMDEC
 70
     2
  9
$DIMTDEC
 70
     2
  9
$DIMALTU
 70
     2
  9
$DIMALTTD
 70
     3
  9
$DIMTXSTY
  7
Standard
  9
$DIMAUNIT
 70
     0
  9
$DIMADEC
 70
     0
  9
$DIMALTRND
 40
0.0
  9
$DIMAZIN
 70
     0
  9
$DIMDSEP
 70
    44
  9
$DIMATFIT
 70
     0
  9
$DIMFRAC
 70
     0
  9
$DIMLDRBLK
  1

  9
$DIMLUNIT
 70
     2
  9
$DIMLWD
 70
    -2
  9
$DIMLWE
 70
    -2
  9
$DIMTMOVE
 70
     0
  9
$LUNITS
 70
     2
  9
$LUPREC
 70
     4
  9
$SKETCHINC
 40
1.0
  9
$FILLETRAD
 40
2.5
  9
$AUNITS
 70
     0
  9
$AUPREC
 70
     0
  9
$MENU
  1
.
  9
$ELEVATION
 40
0.0
  9
$PELEVATION
 40
0.0
  9
$THICKNESS
 40
0.0
  9
$LIMCHECK
 70
     0
  9
$CHAMFERA
 40
2.5
  9
$CHAMFERB
 40
2.5
  9
$CHAMFERC
 40
0.0
  9
$CHAMFERD
 40
0.0
  9
$SKPOLY
 70
     0
  9
$TDCREATE
 40
2447893.125
  9
$TDUCREATE
 40
0.0
  9
$TDUPDATE
 40
2458572.357280648
  9
$TDUUPDATE
 40
2458572.232280648
  9
$TDINDWG
 40
0.0
  9
$TDUSRTIMER
 40
0.0
  9
$USRTIMER
 70
     1
  9
$ANGBASE
 50
0.0
  9
$ANGDIR
 70
     0
  9
$PDMODE
 70
     0
  9
$PDSIZE
 40
0.0
  9
$PLINEWID
 40
0.0
  9
$SPLFRAME
 70
     0
  9
$SPLINETYPE
 70
     6
  9
$SPLINESEGS
 70
     8
  9
$HANDSEED
  5
21A
  9
$SURFTAB1
 70
     6
  9
$SURFTAB2
 70
     6
  9
$SURFTYPE
 70
     6
  9
$SURFU
 70
     6
  9
$SURFV
 70
     6
  9
$UCSBASE
  2

  9
$UCSNAME
  2

  9
$UCSORG
 10
0.0
 20
0.0
 30
0.0
  9
$UCSXDIR
 10
1.0
 20
0.0
 30
0.0
  9
$UCSYDIR
 10
0.0
 20
1.0
 30
0.0
  9
$UCSORTHOREF
  2

  9
$UCSORTHOVIEW
 70
     1
  9
$UCSORGTOP
 10
0.0
 20
0.0
 30
0.0
  9
$UCSORGBOTTOM
 10
0.0
 20
0.0
 30
0.0
  9
$UCSORGLEFT
 10
0.0
 20
0.0
 30
0.0
  9
$UCSORGRIGHT
 10
0.0
 20
0.0
 30
0.0
  9
$UCSORGFRONT
 10
0.0
 20
0.0
 30
0.0
  9
$UCSORGBACK
 10
0.0
 20
0.0
 30
0.0
  9
$PUCSBASE
  2

  9
$PUCSNAME
  2

  9
$PUCSORG
 10
0.0
 20
0.0
 30
0.0
  9
$PUCSXDIR
 10
1.0
 20
0.0
 30
0.0
  9
$PUCSYDIR
 10
0.0
 20
1.0
 30
0.0
  9
$PUCSORTHOREF
  2

  9
$PUCSORTHOVIEW
 70
     0
  9
$PUCSORGTOP
 10
0.0
 20
0.0
 30
0.0
  9
$PUCSORGBOTTOM
 10
0.0
 20
0.0
 30
0.0
  9
$PUCSORGLEFT
 10
0.0
 20
0.0
 30
0.0
  9
$PUCSORGRIGHT
 10
0.0
 20
0.0
 30
0.0
  9
$PUCSORGFRONT
 10
0.0
 20
0.0
 30
0.0
  9
$PUCSORGBACK
 10
0.0
 20
0.0
 30
0.0
  9
$USERI1
 70
     0
  9
$USERI2
 70
     0
  9
$USERI3
 70
     0
  9
$USERI4
 70
     0
  9
$USERI5
 70
     0
  9
$USERR1
 40
0.0
  9
$USERR2
 40
0.0
  9
$USERR3
 40
0.0
  9
$USERR4
 40
0.0
  9
$USERR5
 40
0.0
  9
$WORLDVIEW
 70
     1
  9
$SHADEDGE
 70
     3
  9
$SHADEDIF
 70
    70
  9
$TILEMODE
 70
     1
  9
$MAXACTVP
 70
    64
  9
$PINSBASE
 10
0.0
 20
0.0
 30
0.0
  9
$PLIMCHECK
 70
     0
  9
$PEXTMIN
 10
0.0
 20
0.0
 30
0.0
  9
$PEXTMAX
 10
982.431885
 20
715.687622
 30
2.0
  9
$PLIMMIN
 10
0.0
 20
0.0
  9
$PLIMMAX
 10
420.0
 20
297.0
  9
$UNITMODE
 70
     0
  9
$VISRETAIN
 70
     0
  9
$PLINEGEN
 70
     0
  9
$PSLTSCALE
 70
     1
  9
$TREEDEPTH
 70
  3020
  9
$CMLSTYLE
  2
Standard
  9
$CMLJUST
 70
     0
  9
$CMLSCALE
 40
20.0
  9
$PROXYGRAPHICS
 70
     1
  9
$MEASUREMENT
 70
     1
  9
$CELWEIGHT
370
    -1
  9
$ENDCAPS
280
     0
  9
$JOINSTYLE
280
     0
  9
$LWDISPLAY
290
     0
  9
$INSUNITS
 70
     0
  9
$HYPERLINKBASE
  1

  9
$STYLESHEET
  1

  9
$XEDIT
290
     1
  9
$CEPSNTYPE
380
     0
  9
$PSTYLEMODE
290
     0
  9
$FINGERPRINTGUID
  2
{D158B6B6-1BF4-4078-AF38-C0339662430A}
  9
$VERSIONGUID
  2
{FAEB1C32-E019-11D5-929B-00C0DF256EC4}
  9
$EXTNAMES
290
     1
  9
$PSVPSCALE
 40
0.0
  9
$OLESTARTUP
290
     0
  0
ENDSEC
  0
SECTION
  2
CLASSES
  0
CLASS
  1
ACDBDICTIONARYWDFLT
  2
AcDbDictionaryWithDefault
  3
ObjectDBX Classes
 90
        0
280
     0
281
     0
  0
CLASS
  1
VISUALSTYLE
  2
AcDbVisualStyle
  3
ObjectDBX Classes
 90
     4095
280
     0
281
     0
  0
CLASS
  1
MATERIAL
  2
AcDbMaterial
  3
ObjectDBX Classes
 90
     1153
280
     0
281
     0
  0
CLASS
  1
SCALE
  2
AcDbScale
  3
ObjectDBX Classes
 90
     1153
280
     0
281
     0
  0
CLASS
  1
SUN
  2
AcDbSun
  3
SCENEOE
 90
     1153
280
     0
281
     0
  0
CLASS
  1
ACDBPLACEHOLDER
  2
AcDbPlaceHolder
  3
ObjectDBX Classes
 90
        0
280
     0
281
     0
  0
CLASS
  1
LAYOUT
  2
AcDbLayout
  3
ObjectDBX Classes
 90
        0
280
     0
281
     0
  0
ENDSEC
  0
SECTION
  2
TABLES
  0
TABLE
  2
VPORT
  5
8
330
0
100
AcDbSymbolTable
 70
     1
  0
VPORT
  5
29
330
8
100
AcDbSymbolTableRecord
100
AcDbViewportTableRecord
  2
*Active
 70
     0
 10
0.0
 20
0.0
 11
1.0
 21
1.0
 12
10.429907
 22
4.5
 13
0.0
 23
0.0
 14
0.5
 24
0.5
 15
0.5
 25
0.5
 16
0.0
 26
0.0
 36
1.0
 17
0.0
 27
0.0
 37
0.0
 40
9.0
 41
1.972973
 42
50.0
 43
0.0
 44
0.0
 50
0.0
 51
0.0
 71
     0
 72
   100
 73
     1
 74
     3
 75
     0
 76
     0
 77
     0
 78
     0
281
     0
 65
     1
110
0.0
120
0.0
130
0.0
111
1.0
121
0.0
131
0.0
112
0.0
122
1.0
132
0.0
 79
     0
146
0.0
  0
ENDTAB
  0
TABLE
  2
LTYPE
  5
5
330
0
100
AcDbSymbolTable
 70
     2
  0
LTYPE
  5
14
330
5
100
AcDbSymbolTableRecord
100
AcDbLinetypeTableRecord
  2
ByBlock
 70
     0
  3

 72
    65
 73
     0
 40
0.0
  0
LTYPE
  5
15
330
5
100
AcDbSymbolTableRecord
100
AcDbLinetypeTableRecord
  2
ByLayer
 70
     0
  3

 72
    65
 73
     0
 40
0.0
  0
LTYPE
  5
16
330
5
100
AcDbSymbolTableRecord
100
AcDbLinetypeTableRecord
  2
Continuous
 70
     0
  3
Solid line
 72
    65
 73
     0
 40
0.0
  0
LTYPE
  5
6A
330
5
100
AcDbSymbolTableRecord
100
AcDbLinetypeTableRecord
  2
DASHSPACE
 70
     0
  3
__    __    __    __    __   
 72
    65
 73
     2
 40
30.0
 49
12.0
 74
     0
 49
-18.0
 74
     0
  0
ENDTAB
  0
TABLE
  2
LAYER
  5
2
330
0
100
AcDbSymbolTable
 70
     1
  0
LAYER
  5
10
330
2
100
AcDbSymbolTableRecord
100
AcDbLayerTableRecord
  2
0
 70
     0
 62
     7
  6
Continuous
370
    -3
390
F
  0
ENDTAB
  0
TABLE
  2
STYLE
  5
3
330
0
100
AcDbSymbolTable
 70
     1
  0
STYLE
  5
11
330
3
100
AcDbSymbolTableRecord
100
AcDbTextStyleTableRecord
  2
Standard
 70
     0
 40
0.0
 41
1.0
 50
0.0
 71
     0
 42
2.5
  3
txt
  4

  0
ENDTAB
  0
TABLE
  2
VIEW
  5
6
330
0
100
AcDbSymbolTable
 70
     0
  0
ENDTAB
  0
TABLE
  2
UCS
  5
7
330
0
100
AcDbSymbolTable
 70
     0
  0
ENDTAB
  0
TABLE
  2
APPID
  5
9
330
0
100
AcDbSymbolTable
 70
     1
  0
APPID
  5
12
330
9
100
AcDbSymbolTableRecord
100
AcDbRegAppTableRecord
  2
ACAD
 70
     0
  0
ENDTAB
  0
TABLE
  2
DIMSTYLE
  5
A
330
0
100
AcDbSymbolTable
 70
     1
100
AcDbDimStyleTable
  0
DIMSTYLE
105
27
330
A
100
AcDbSymbolTableRecord
100
AcDbDimStyleTableRecord
  2
Standard
 70
     0
178
     0
340
11
  0
ENDTAB
  0
TABLE
  2
BLOCK_RECORD
  5
1
330
0
100
AcDbSymbolTable
 70
     1
  0
BLOCK_RECORD
  5
1F
330
1
100
AcDbSymbolTableRecord
100
AcDbBlockTableRecord
  2
*Model_Space
340
22
  0
BLOCK_RECORD
  5
1B
330
1
100
AcDbSymbolTableRecord
100
AcDbBlockTableRecord
  2
*Paper_Space
340
1E
  0
BLOCK_RECORD
  5
23
330
1
100
AcDbSymbolTableRecord
100
AcDbBlockTableRecord
  2
*Paper_Space0
340
26
  0
ENDTAB
  0
ENDSEC
  0
SECTION
  2
BLOCKS
  0
BLOCK
  5
20
330
1F
100
AcDbEntity
  8
0
100
AcDbBlockBegin
  2
*Model_Space
 70
     0
 10
0.0
 20
0.0
 30
0.0
  3
*Model_Space
  1
*Model_Space
  0
ENDBLK
  5
21
330
1F
100
AcDbEntity
  8
0
100
AcDbBlockEnd
  0
BLOCK
  5
1C
330
1B
100
AcDbEntity
 67
     1
  8
0
100
AcDbBlockBegin
  2
*Paper_Space
 70
     0
 10
0.0
 20
0.0
 30
0.0
  3
*Paper_Space
  1
*Paper_Space
  0
ENDBLK
  5
1D
330
1B
100
AcDbEntity
 67
     1
  8
0
100
AcDbBlockEnd
  0
BLOCK
  5
24
330
23
100
AcDbEntity
  8
0
100
AcDbBlockBegin
  2
*Paper_Space0
 70
     0
 10
0.0
 20
0.0
 30
0.0
  3
*Paper_Space0
  1
*Paper_Space0
  0
ENDBLK
  5
25
330
23
100
AcDbEntity
  8
0
100
AcDbBlockEnd
  0
ENDSEC
  0
SECTION
  2
ENTITIES
  0
POLYLINE
  5
6B
330
1F
100
AcDbEntity
  8
0
 62
     7
370
    13
100
AcDb2dPolyline
 66
     1
 10
0.0
 20
0.0
 30
0.0
  0
VERTEX
  5
6C
330
6B
100
AcDbEntity
  8
0
370
     0
100
AcDbVertex
100
AcDb2dVertex
 10
572.732239
 20
680.449219
 30
0.0
  0
VERTEX
  5
6D
330
6B
100
AcDbEntity
  8
0
370
     0
100
AcDbVertex
100
AcDb2dVertex
 10
583.570984
 20
680.449219
 30
0.0
  0
VERTEX
  5
6E
330
6B
100
AcDbEntity
  8
0
370
     0
100
AcDbVertex
100
AcDb2dVertex
 10
575.441956
 20
666.449219
 30
0.0
  0
SEQEND
  5
6F
330
6B
100
AcDbEntity
  8
0
 62
     7
370
    13
  0
POLYLINE
  5
70
330
1F
100
AcDbEntity
  8
0
 62
     7
370
    13
100
AcDb2dPolyline
 66
     1
 10
0.0
 20
0.0
 30
0.0
  0
VERTEX
  5
71
330
70
100
AcDbEntity
  8
0
370
     0
100
AcDbVertex
100
AcDb2dVertex
 10
599.016113
 20
678.642761
 30
0.0
  0
VERTEX
  5
72
330
70
100
AcDbEntity
  8
0
370
     0
100
AcDbVertex
100
AcDb2dVertex
 10
598.338684
 20
679.77179
 30
0.0
  0
VERTEX
  5
73
330
70
100
AcDbEntity
  8
0
370
     0
100
AcDbVertex
100
AcDb2dVertex
 10
595.854858
 20
680.449219
 30
0.0
  0
VERTEX
  5
74
330
70
100
AcDbEntity
  8
0
370
     0
100
AcDbVertex
100
AcDb2dVertex
 10
594.5
 20
680.449219
 30
0.0
  0
VERTEX
  5
75
330
70
100
AcDbEntity
  8
0
370
     0
100
AcDbVertex
100
AcDb2dVertex
 10
592.016113
 20
679.77179
 30
0.0
  0
VERTEX
  5
76
330
70
100
AcDbEntity
  8
0
370
     0
100
AcDbVertex
100
AcDb2dVertex
 10
590.435486
 20
677.965332
 30
0.0
  0
VERTEX
  5
77
330
70
100
AcDbEntity
  8
0
370
     0
100
AcDbVertex
100
AcDb2dVertex
 10
589.758057
 20
674.804077
 30
0.0
  0
VERTEX
  5
78
330
70
100
AcDbEntity
  8
0
370
     0
100
AcDbVertex
100
AcDb2dVertex
 10
589.758057
 20
671.642761
 30
0.0
  0
VERTEX
  5
79
330
70
100
AcDbEntity
  8
0
370
     0
100
AcDbVertex
100
AcDb2dVertex
 10
590.435486
 20
669.158875
 30
0.0
  0
VERTEX
  5
7A
330
70
100
AcDbEntity
  8
0
370
     0
100
AcDbVertex
100
AcDb2dVertex
 10
591.790344
 20
667.578247
 30
0.0
  0
VERTEX
  5
7B
330
70
100
AcDbEntity
  8
0
370
     0
100
AcDbVertex
100
AcDb2dVertex
 10
594.27417
 20
666.449219
 30
0.0
  0
VERTEX
  5
7C
330
70
100
AcDbEntity
  8
0
370
     0
100
AcDbVertex
100
AcDb2dVertex
 10
595.177429
 20
666.449219
 30
0.0
  0
VERTEX
  5
7D
330
70
100
AcDbEntity
  8
0
370
     0
100
AcDbVertex
100
AcDb2dVertex
 10
597.661316
 20
667.126648
 30
0.0
  0
VERTEX
  5
7E
330
70
100
AcDbEntity
  8
0
370
     0
100
AcDbVertex
100
AcDb2dVertex
 10
599.016113
 20
668.481445
 30
0.0
  0
VERTEX
  5
7F
330
70
100
AcDbEntity
  8
0
370
     0
100
AcDbVertex
100
AcDb2dVertex
 10
599.693542
 20
670.287964
 30
0.0
  0
VERTEX
  5
80
330
70
100
AcDbEntity
  8
0
370
     0
100
AcDbVertex
100
AcDb2dVertex
 10
599.693542
 20
670.965332
 30
0.0
  0
VERTEX
  5
81
330
70
100
AcDbEntity
  8
0
370
     0
100
AcDbVertex
100
AcDb2dVertex
 10
599.016113
 20
672.77179
 30
0.0
  0
VERTEX
  5
82
330
70
100
AcDbEntity
  8
0
370
     0
100
AcDbVertex
100
AcDb2dVertex
 10
597.661316
 20
674.126648
 30
0.0
  0
VERTEX
  5
83
330
70
100
AcDbEntity
  8
0
370
     0
100
AcDbVertex
100
AcDb2dVertex
 10
595.177429
 20
674.804077
 30
0.0
  0
VERTEX
  5
84
330
70
100
AcDbEntity
  8
0
370
     0
100
AcDbVertex
100
AcDb2dVertex
 10
594.27417
 20
674.804077
 30
0.0
  0
VERTEX
  5
85
330
70
100
AcDbEntity
  8
0
370
     0
100
AcDbVertex
100
AcDb2dVertex
 10
591.790344
 20
674.126648
 30
0.0
  0
VERTEX
  5
86
330
70
100
AcDbEntity
  8
0
370
     0
100
AcDbVertex
100
AcDb2dVertex
 10
590.435486
 20
672.99762
 30
0.0
  0
VERTEX
  5
87
330
70
100
AcDbEntity
  8
0
370
     0
100
AcDbVertex
100
AcDb2dVertex
 10
589.758057
 20
671.416992
 30
0.0
  0
SEQEND
  5
88
330
70
100
AcDbEntity
  8
0
 62
     7
370
    13
  0
POLYLINE
  5
89
330
1F
100
AcDbEntity
  8
0
 62
     7
370
    13
100
AcDb2dPolyline
 66
     1
 10
0.0
 20
0.0
 30
0.0
  0
VERTEX
  5
8A
330
89
100
AcDbEntity
  8
0
370
     0
100
AcDbVertex
100
AcDb2dVertex
 10
616.267761
 20
666.449219
 30
0.0
  0
VERTEX
  5
8B
330
89
100
AcDbEntity
  8
0
370
     0
100
AcDbVertex
100
AcDb2dVertex
 10
605.429016
 20
666.449219
 30
0.0
  0
VERTEX
  5
8C
330
89
100
AcDbEntity
  8
0
370
     0
100
AcDbVertex
100
AcDb2dVertex
 10
613.106445
 20
672.77179
 30
0.0
  0
VERTEX
  5
8D
330
89
100
AcDbEntity
  8
0
370
     0
100
AcDbVertex
100
AcDb2dVertex
 10
614.687073
 20
674.578247
 30
0.0
  0
VERTEX
  5
8E
330
89
100
AcDbEntity
  8
0
370
     0
100
AcDbVertex
100
AcDb2dVertex
 10
615.364502
 20
675.933105
 30
0.0
  0
VERTEX
  5
8F
330
89
100
AcDbEntity
  8
0
370
     0
100
AcDbVertex
100
AcDb2dVertex
 10
615.364502
 20
677.287964
 30
0.0
  0
VERTEX
  5
90
330
89
100
AcDbEntity
  8
0
370
     0
100
AcDbVertex
100
AcDb2dVertex
 10
614.687073
 20
678.86853
 30
0.0
  0
VERTEX
  5
91
330
89
100
AcDbEntity
  8
0
370
     0
100
AcDbVertex
100
AcDb2dVertex
 10
614.009644
 20
679.77179
 30
0.0
  0
VERTEX
  5
92
330
89
100
AcDbEntity
  8
0
370
     0
100
AcDbVertex
100
AcDb2dVertex
 10
612.429016
 20
680.449219
 30
0.0
  0
VERTEX
  5
93
330
89
100
AcDbEntity
  8
0
370
     0
100
AcDbVertex
100
AcDb2dVertex
 10
609.71936
 20
680.449219
 30
0.0
  0
VERTEX
  5
94
330
89
100
AcDbEntity
  8
0
370
     0
100
AcDbVertex
100
AcDb2dVertex
 10
608.138733
 20
679.77179
 30
0.0
  0
VERTEX
  5
95
330
89
100
AcDbEntity
  8
0
370
     0
100
AcDbVertex
100
AcDb2dVertex
 10
607.461304
 20
679.09436
 30
0.0
  0
VERTEX
  5
96
330
89
100
AcDbEntity
  8
0
370
     0
100
AcDbVertex
100
AcDb2dVertex
 10
606.558044
 20
677.739502
 30
0.0
  0
VERTEX
  5
97
330
89
100
AcDbEntity
  8
0
370
     0
100
AcDbVertex
100
AcDb2dVertex
 10
606.558044
 20
677.062134
 30
0.0
  0
SEQEND
  5
98
330
89
100
AcDbEntity
  8
0
 62
     7
370
    13
  0
LINE
  5
99
330
1F
100
AcDbEntity
  8
0
 62
     7
370
    13
100
AcDbLine
 10
213.5
 20
610.700012
 30
0.0
 11
213.5
 21
666.449219
 31
0.0
  0
LINE
  5
9A
330
1F
100
AcDbEntity
  8
0
 62
     7
370
    13
100
AcDbLine
 10
975.5
 20
610.700012
 30
0.0
 11
975.5
 21
666.449219
 31
0.0
  0
POLYLINE
  5
9B
330
1F
100
AcDbEntity
  8
0
 62
     7
370
    13
100
AcDb2dPolyline
 66
     1
 10
0.0
 20
0.0
 30
0.0
  0
VERTEX
  5
9C
330
9B
100
AcDbEntity
  8
0
370
     0
100
AcDbVertex
100
AcDb2dVertex
 10
973.568115
 20
663.93158
 30
0.0
  0
VERTEX
  5
9D
330
9B
100
AcDbEntity
  8
0
370
     0
100
AcDbVertex
100
AcDb2dVertex
 10
975.5
 20
664.449219
 30
0.0
  0
VERTEX
  5
9E
330
9B
100
AcDbEntity
  8
0
370
     0
100
AcDbVertex
100
AcDb2dVertex
 10
973.568115
 20
664.966858
 30
0.0
  0
SEQEND
  5
9F
330
9B
100
AcDbEntity
  8
0
 62
     7
370
    13
  0
POLYLINE
  5
A0
330
1F
100
AcDbEntity
  8
0
 62
     7
370
    13
100
AcDb2dPolyline
 66
     1
 10
0.0
 20
0.0
 30
0.0
  0
VERTEX
  5
A1
330
A0
100
AcDbEntity
  8
0
370
     0
100
AcDbVertex
100
AcDb2dVertex
 10
215.431854
 20
664.966858
 30
0.0
  0
VERTEX
  5
A2
330
A0
100
AcDbEntity
  8
0
370
     0
100
AcDbVertex
100
AcDb2dVertex
 10
213.5
 20
664.449219
 30
0.0
  0
VERTEX
  5
A3
330
A0
100
AcDbEntity
  8
0
370
     0
100
AcDbVertex
100
AcDb2dVertex
 10
215.431854
 20
663.93158
 30
0.0
  0
SEQEND
  5
A4
330
A0
100
AcDbEntity
  8
0
 62
     7
370
    13
  0
LINE
  5
A5
330
1F
100
AcDbEntity
  8
0
 62
     7
370
    13
100
AcDbLine
 10
213.5
 20
664.449219
 30
0.0
 11
975.5
 21
664.449219
 31
0.0
  0
POLYLINE
  5
A6
330
1F
100
AcDbEntity
  8
0
 62
     7
370
    13
100
AcDb2dPolyline
 66
     1
 10
0.0
 20
0.0
 30
0.0
  0
VERTEX
  5
A7
330
A6
100
AcDbEntity
  8
0
370
     0
100
AcDbVertex
100
AcDb2dVertex
 10
572.732239
 20
714.687622
 30
0.0
  0
VERTEX
  5
A8
330
A6
100
AcDbEntity
  8
0
370
     0
100
AcDbVertex
100
AcDb2dVertex
 10
583.570984
 20
714.687622
 30
0.0
  0
VERTEX
  5
A9
330
A6
100
AcDbEntity
  8
0
370
     0
100
AcDbVertex
100
AcDb2dVertex
 10
575.441956
 20
700.687622
 30
0.0
  0
SEQEND
  5
AA
330
A6
100
AcDbEntity
  8
0
 62
     7
370
    13
  0
POLYLINE
  5
AB
330
1F
100
AcDbEntity
  8
0
 62
     7
370
    13
100
AcDb2dPolyline
 66
     1
 10
0.0
 20
0.0
 30
0.0
  0
VERTEX
  5
AC
330
AB
100
AcDbEntity
  8
0
370
     0
100
AcDbVertex
100
AcDb2dVertex
 10
589.080627
 20
714.687622
 30
0.0
  0
VERTEX
  5
AD
330
AB
100
AcDbEntity
  8
0
370
     0
100
AcDbVertex
100
AcDb2dVertex
 10
599.919373
 20
714.687622
 30
0.0
  0
VERTEX
  5
AE
330
AB
100
AcDbEntity
  8
0
370
     0
100
AcDbVertex
100
AcDb2dVertex
 10
591.790344
 20
700.687622
 30
0.0
  0
SEQEND
  5
AF
330
AB
100
AcDbEntity
  8
0
 62
     7
370
    13
  0
POLYLINE
  5
B0
330
1F
100
AcDbEntity
  8
0
 62
     7
370
    13
100
AcDb2dPolyline
 66
     1
 10
0.0
 20
0.0
 30
0.0
  0
VERTEX
  5
B1
330
B0
100
AcDbEntity
  8
0
370
     0
100
AcDbVertex
100
AcDb2dVertex
 10
616.267761
 20
700.687622
 30
0.0
  0
VERTEX
  5
B2
330
B0
100
AcDbEntity
  8
0
370
     0
100
AcDbVertex
100
AcDb2dVertex
 10
605.429016
 20
700.687622
 30
0.0
  0
VERTEX
  5
B3
330
B0
100
AcDbEntity
  8
0
370
     0
100
AcDbVertex
100
AcDb2dVertex
 10
613.106445
 20
707.010193
 30
0.0
  0
VERTEX
  5
B4
330
B0
100
AcDbEntity
  8
0
370
     0
100
AcDbVertex
100
AcDb2dVertex
 10
614.687073
 20
708.81665
 30
0.0
  0
VERTEX
  5
B5
330
B0
100
AcDbEntity
  8
0
370
     0
100
AcDbVertex
100
AcDb2dVertex
 10
615.364502
 20
710.171509
 30
0.0
  0
VERTEX
  5
B6
330
B0
100
AcDbEntity
  8
0
370
     0
100
AcDbVertex
100
AcDb2dVertex
 10
615.364502
 20
711.526367
 30
0.0
  0
VERTEX
  5
B7
330
B0
100
AcDbEntity
  8
0
370
     0
100
AcDbVertex
100
AcDb2dVertex
 10
614.687073
 20
713.106934
 30
0.0
  0
VERTEX
  5
B8
330
B0
100
AcDbEntity
  8
0
370
     0
100
AcDbVertex
100
AcDb2dVertex
 10
614.009644
 20
714.010193
 30
0.0
  0
VERTEX
  5
B9
330
B0
100
AcDbEntity
  8
0
370
     0
100
AcDbVertex
100
AcDb2dVertex
 10
612.429016
 20
714.687622
 30
0.0
  0
VERTEX
  5
BA
330
B0
100
AcDbEntity
  8
0
370
     0
100
AcDbVertex
100
AcDb2dVertex
 10
609.71936
 20
714.687622
 30
0.0
  0
VERTEX
  5
BB
330
B0
100
AcDbEntity
  8
0
370
     0
100
AcDbVertex
100
AcDb2dVertex
 10
608.138733
 20
714.010193
 30
0.0
  0
VERTEX
  5
BC
330
B0
100
AcDbEntity
  8
0
370
     0
100
AcDbVertex
100
AcDb2dVertex
 10
607.461304
 20
713.332764
 30
0.0
  0
VERTEX
  5
BD
330
B0
100
AcDbEntity
  8
0
370
     0
100
AcDbVertex
100
AcDb2dVertex
 10
606.558044
 20
711.977905
 30
0.0
  0
VERTEX
  5
BE
330
B0
100
AcDbEntity
  8
0
370
     0
100
AcDbVertex
100
AcDb2dVertex
 10
606.558044
 20
711.300537
 30
0.0
  0
SEQEND
  5
BF
330
B0
100
AcDbEntity
  8
0
 62
     7
370
    13
  0
LINE
  5
C0
330
1F
100
AcDbEntity
  8
0
 62
     7
370
    13
100
AcDbLine
 10
208.5
 20
610.700012
 30
0.0
 11
208.5
 21
700.687622
 31
0.0
  0
LINE
  5
C1
330
1F
100
AcDbEntity
  8
0
 62
     7
370
    13
100
AcDbLine
 10
980.5
 20
610.700012
 30
0.0
 11
980.5
 21
700.687622
 31
0.0
  0
POLYLINE
  5
C2
330
1F
100
AcDbEntity
  8
0
 62
     7
370
    13
100
AcDb2dPolyline
 66
     1
 10
0.0
 20
0.0
 30
0.0
  0
VERTEX
  5
C3
330
C2
100
AcDbEntity
  8
0
370
     0
100
AcDbVertex
100
AcDb2dVertex
 10
210.431854
 20
699.205261
 30
0.0
  0
VERTEX
  5
C4
330
C2
100
AcDbEntity
  8
0
370
     0
100
AcDbVertex
100
AcDb2dVertex
 10
208.5
 20
698.687622
 30
0.0
  0
VERTEX
  5
C5
330
C2
100
AcDbEntity
  8
0
370
     0
100
AcDbVertex
100
AcDb2dVertex
 10
210.431854
 20
698.169983
 30
0.0
  0
SEQEND
  5
C6
330
C2
100
AcDbEntity
  8
0
 62
     7
370
    13
  0
POLYLINE
  5
C7
330
1F
100
AcDbEntity
  8
0
 62
     7
370
    13
100
AcDb2dPolyline
 66
     1
 10
0.0
 20
0.0
 30
0.0
  0
VERTEX
  5
C8
330
C7
100
AcDbEntity
  8
0
370
     0
100
AcDbVertex
100
AcDb2dVertex
 10
978.568115
 20
698.169983
 30
0.0
  0
VERTEX
  5
C9
330
C7
100
AcDbEntity
  8
0
370
     0
100
AcDbVertex
100
AcDb2dVertex
 10
980.5
 20
698.687622
 30
0.0
  0
VERTEX
  5
CA
330
C7
100
AcDbEntity
  8
0
370
     0
100
AcDbVertex
100
AcDb2dVertex
 10
978.568115
 20
699.205261
 30
0.0
  0
SEQEND
  5
CB
330
C7
100
AcDbEntity
  8
0
 62
     7
370
    13
  0
LINE
  5
CC
330
1F
100
AcDbEntity
  8
0
 62
     7
370
    13
100
AcDbLine
 10
208.5
 20
698.687622
 30
0.0
 11
980.5
 21
698.687622
 31
0.0
  0
POLYLINE
  5
CD
330
1F
100
AcDbEntity
  8
0
 62
     7
370
    13
100
AcDb2dPolyline
 66
     1
 10
0.0
 20
0.0
 30
0.0
  0
VERTEX
  5
CE
330
CD
100
AcDbEntity
  8
0
370
     0
100
AcDbVertex
100
AcDb2dVertex
 10
122.459534
 20
392.770966
 30
0.0
  0
VERTEX
  5
CF
330
CD
100
AcDbEntity
  8
0
370
     0
100
AcDbVertex
100
AcDb2dVertex
 10
122.459534
 20
382.383881
 30
0.0
  0
VERTEX
  5
D0
330
CD
100
AcDbEntity
  8
0
370
     0
100
AcDbVertex
100
AcDb2dVertex
 10
113.427277
 20
390.061279
 30
0.0
  0
VERTEX
  5
D1
330
CD
100
AcDbEntity
  8
0
370
     0
100
AcDbVertex
100
AcDb2dVertex
 10
120.201477
 20
390.061279
 30
0.0
  0
VERTEX
  5
D2
330
CD
100
AcDbEntity
  8
0
370
     0
100
AcDbVertex
100
AcDb2dVertex
 10
127.427277
 20
390.061279
 30
0.0
  0
SEQEND
  5
D3
330
CD
100
AcDbEntity
  8
0
 62
     7
370
    13
  0
POLYLINE
  5
D4
330
1F
100
AcDbEntity
  8
0
 62
     7
370
    13
100
AcDb2dPolyline
 66
     1
 10
0.0
 20
0.0
 30
0.0
  0
VERTEX
  5
D5
330
D4
100
AcDbEntity
  8
0
370
     0
100
AcDbVertex
100
AcDb2dVertex
 10
115.233734
 20
402.119354
 30
0.0
  0
VERTEX
  5
D6
330
D4
100
AcDbEntity
  8
0
370
     0
100
AcDbVertex
100
AcDb2dVertex
 10
113.427277
 20
404.60321
 30
0.0
  0
VERTEX
  5
D7
330
D4
100
AcDbEntity
  8
0
370
     0
100
AcDbVertex
100
AcDb2dVertex
 10
127.427277
 20
404.60321
 30
0.0
  0
SEQEND
  5
D8
330
D4
100
AcDbEntity
  8
0
 62
     7
370
    13
  0
POLYLINE
  5
D9
330
1F
100
AcDbEntity
  8
0
 62
     7
370
    13
100
AcDb2dPolyline
 66
     1
 10
0.0
 20
0.0
 30
0.0
  0
VERTEX
  5
DA
330
D9
100
AcDbEntity
  8
0
370
     0
100
AcDbVertex
100
AcDb2dVertex
 10
115.911133
 20
400.764526
 30
0.0
  0
VERTEX
  5
DB
330
D9
100
AcDbEntity
  8
0
370
     0
100
AcDbVertex
100
AcDb2dVertex
 10
115.233734
 20
402.119354
 30
0.0
  0
SEQEND
  5
DC
330
D9
100
AcDbEntity
  8
0
 62
     7
370
    13
  0
POLYLINE
  5
DD
330
1F
100
AcDbEntity
  8
0
 62
     7
370
    13
100
AcDb2dPolyline
 66
     1
 10
0.0
 20
0.0
 30
0.0
  0
VERTEX
  5
DE
330
DD
100
AcDbEntity
  8
0
370
     0
100
AcDbVertex
100
AcDb2dVertex
 10
115.233734
 20
425.016113
 30
0.0
  0
VERTEX
  5
DF
330
DD
100
AcDbEntity
  8
0
370
     0
100
AcDbVertex
100
AcDb2dVertex
 10
114.104706
 20
424.338715
 30
0.0
  0
VERTEX
  5
E0
330
DD
100
AcDbEntity
  8
0
370
     0
100
AcDbVertex
100
AcDb2dVertex
 10
113.427277
 20
421.854828
 30
0.0
  0
VERTEX
  5
E1
330
DD
100
AcDbEntity
  8
0
370
     0
100
AcDbVertex
100
AcDb2dVertex
 10
113.427277
 20
420.5
 30
0.0
  0
VERTEX
  5
E2
330
DD
100
AcDbEntity
  8
0
370
     0
100
AcDbVertex
100
AcDb2dVertex
 10
114.104706
 20
418.016113
 30
0.0
  0
VERTEX
  5
E3
330
DD
100
AcDbEntity
  8
0
370
     0
100
AcDbVertex
100
AcDb2dVertex
 10
115.911133
 20
416.435486
 30
0.0
  0
VERTEX
  5
E4
330
DD
100
AcDbEntity
  8
0
370
     0
100
AcDbVertex
100
AcDb2dVertex
 10
119.072449
 20
415.758057
 30
0.0
  0
VERTEX
  5
E5
330
DD
100
AcDbEntity
  8
0
370
     0
100
AcDbVertex
100
AcDb2dVertex
 10
122.233734
 20
415.758057
 30
0.0
  0
VERTEX
  5
E6
330
DD
100
AcDbEntity
  8
0
370
     0
100
AcDbVertex
100
AcDb2dVertex
 10
124.71759
 20
416.435486
 30
0.0
  0
VERTEX
  5
E7
330
DD
100
AcDbEntity
  8
0
370
     0
100
AcDbVertex
100
AcDb2dVertex
 10
126.298248
 20
417.790314
 30
0.0
  0
VERTEX
  5
E8
330
DD
100
AcDbEntity
  8
0
370
     0
100
AcDbVertex
100
AcDb2dVertex
 10
127.427277
 20
420.2742
 30
0.0
  0
VERTEX
  5
E9
330
DD
100
AcDbEntity
  8
0
370
     0
100
AcDbVertex
100
AcDb2dVertex
 10
127.427277
 20
421.177429
 30
0.0
  0
VERTEX
  5
EA
330
DD
100
AcDbEntity
  8
0
370
     0
100
AcDbVertex
100
AcDb2dVertex
 10
126.749847
 20
423.661285
 30
0.0
  0
VERTEX
  5
EB
330
DD
100
AcDbEntity
  8
0
370
     0
100
AcDbVertex
100
AcDb2dVertex
 10
125.39502
 20
425.016113
 30
0.0
  0
VERTEX
  5
EC
330
DD
100
AcDbEntity
  8
0
370
     0
100
AcDbVertex
100
AcDb2dVertex
 10
123.588562
 20
425.693542
 30
0.0
  0
VERTEX
  5
ED
330
DD
100
AcDbEntity
  8
0
370
     0
100
AcDbVertex
100
AcDb2dVertex
 10
122.911133
 20
425.693542
 30
0.0
  0
VERTEX
  5
EE
330
DD
100
AcDbEntity
  8
0
370
     0
100
AcDbVertex
100
AcDb2dVertex
 10
121.104706
 20
425.016113
 30
0.0
  0
VERTEX
  5
EF
330
DD
100
AcDbEntity
  8
0
370
     0
100
AcDbVertex
100
AcDb2dVertex
 10
119.749847
 20
423.661285
 30
0.0
  0
VERTEX
  5
F0
330
DD
100
AcDbEntity
  8
0
370
     0
100
AcDbVertex
100
AcDb2dVertex
 10
119.072449
 20
421.177429
 30
0.0
  0
VERTEX
  5
F1
330
DD
100
AcDbEntity
  8
0
370
     0
100
AcDbVertex
100
AcDb2dVertex
 10
119.072449
 20
420.2742
 30
0.0
  0
VERTEX
  5
F2
330
DD
100
AcDbEntity
  8
0
370
     0
100
AcDbVertex
100
AcDb2dVertex
 10
119.749847
 20
417.790314
 30
0.0
  0
VERTEX
  5
F3
330
DD
100
AcDbEntity
  8
0
370
     0
100
AcDbVertex
100
AcDb2dVertex
 10
120.878876
 20
416.435486
 30
0.0
  0
VERTEX
  5
F4
330
DD
100
AcDbEntity
  8
0
370
     0
100
AcDbVertex
100
AcDb2dVertex
 10
122.459534
 20
415.758057
 30
0.0
  0
SEQEND
  5
F5
330
DD
100
AcDbEntity
  8
0
 62
     7
370
    13
  0
POLYLINE
  5
F6
330
1F
100
AcDbEntity
  8
0
 62
     7
370
    13
100
AcDb2dPolyline
 66
     1
 10
0.0
 20
0.0
 30
0.0
  0
VERTEX
  5
F7
330
F6
100
AcDbEntity
  8
0
370
     0
100
AcDbVertex
100
AcDb2dVertex
 10
127.427277
 20
436.848389
 30
0.0
  0
VERTEX
  5
F8
330
F6
100
AcDbEntity
  8
0
370
     0
100
AcDbVertex
100
AcDb2dVertex
 10
127.427277
 20
437.299988
 30
0.0
  0
SEQEND
  5
F9
330
F6
100
AcDbEntity
  8
0
 62
     7
370
    13
  0
POLYLINE
  5
FA
330
1F
100
AcDbEntity
  8
0
 62
     7
370
    13
100
AcDb2dPolyline
 66
     1
 10
0.0
 20
0.0
 30
0.0
  0
VERTEX
  5
FB
330
FA
100
AcDbEntity
  8
0
370
     0
100
AcDbVertex
100
AcDb2dVertex
 10
126.298248
 20
437.977417
 30
0.0
  0
VERTEX
  5
FC
330
FA
100
AcDbEntity
  8
0
370
     0
100
AcDbVertex
100
AcDb2dVertex
 10
125.620819
 20
437.299988
 30
0.0
  0
SEQEND
  5
FD
330
FA
100
AcDbEntity
  8
0
 62
     7
370
    13
  0
POLYLINE
  5
FE
330
1F
100
AcDbEntity
  8
0
 62
     7
370
    13
100
AcDb2dPolyline
 66
     1
 10
0.0
 20
0.0
 30
0.0
  0
VERTEX
  5
FF
330
FE
100
AcDbEntity
  8
0
370
     0
100
AcDbVertex
100
AcDb2dVertex
 10
125.620819
 20
436.848389
 30
0.0
  0
VERTEX
  5
100
330
FE
100
AcDbEntity
  8
0
370
     0
100
AcDbVertex
100
AcDb2dVertex
 10
126.298248
 20
436.170959
 30
0.0
  0
SEQEND
  5
101
330
FE
100
AcDbEntity
  8
0
 62
     7
370
    13
  0
POLYLINE
  5
102
330
1F
100
AcDbEntity
  8
0
 62
     7
370
    13
100
AcDb2dPolyline
 66
     1
 10
0.0
 20
0.0
 30
0.0
  0
VERTEX
  5
103
330
102
100
AcDbEntity
  8
0
370
     0
100
AcDbVertex
100
AcDb2dVertex
 10
126.749847
 20
436.170959
 30
0.0
  0
VERTEX
  5
104
330
102
100
AcDbEntity
  8
0
370
     0
100
AcDbVertex
100
AcDb2dVertex
 10
127.427277
 20
436.848389
 30
0.0
  0
SEQEND
  5
105
330
102
100
AcDbEntity
  8
0
 62
     7
370
    13
  0
POLYLINE
  5
106
330
1F
100
AcDbEntity
  8
0
 62
     7
370
    13
100
AcDb2dPolyline
 66
     1
 10
0.0
 20
0.0
 30
0.0
  0
VERTEX
  5
107
330
106
100
AcDbEntity
  8
0
370
     0
100
AcDbVertex
100
AcDb2dVertex
 10
127.427277
 20
437.299988
 30
0.0
  0
VERTEX
  5
108
330
106
100
AcDbEntity
  8
0
370
     0
100
AcDbVertex
100
AcDb2dVertex
 10
126.749847
 20
437.977417
 30
0.0
  0
SEQEND
  5
109
330
106
100
AcDbEntity
  8
0
 62
     7
370
    13
  0
POLYLINE
  5
10A
330
1F
100
AcDbEntity
  8
0
 62
     7
370
    13
100
AcDb2dPolyline
 66
     1
 10
0.0
 20
0.0
 30
0.0
  0
VERTEX
  5
10B
330
10A
100
AcDbEntity
  8
0
370
     0
100
AcDbVertex
100
AcDb2dVertex
 10
126.298248
 20
436.170959
 30
0.0
  0
VERTEX
  5
10C
330
10A
100
AcDbEntity
  8
0
370
     0
100
AcDbVertex
100
AcDb2dVertex
 10
126.749847
 20
436.170959
 30
0.0
  0
SEQEND
  5
10D
330
10A
100
AcDbEntity
  8
0
 62
     7
370
    13
  0
POLYLINE
  5
10E
330
1F
100
AcDbEntity
  8
0
 62
     7
370
    13
100
AcDb2dPolyline
 66
     1
 10
0.0
 20
0.0
 30
0.0
  0
VERTEX
  5
10F
330
10E
100
AcDbEntity
  8
0
370
     0
100
AcDbVertex
100
AcDb2dVertex
 10
125.620819
 20
436.848389
 30
0.0
  0
VERTEX
  5
110
330
10E
100
AcDbEntity
  8
0
370
     0
100
AcDbVertex
100
AcDb2dVertex
 10
125.620819
 20
437.299988
 30
0.0
  0
SEQEND
  5
111
330
10E
100
AcDbEntity
  8
0
 62
     7
370
    13
  0
POLYLINE
  5
112
330
1F
100
AcDbEntity
  8
0
 62
     7
370
    13
100
AcDb2dPolyline
 66
     1
 10
0.0
 20
0.0
 30
0.0
  0
VERTEX
  5
113
330
112
100
AcDbEntity
  8
0
370
     0
100
AcDbVertex
100
AcDb2dVertex
 10
126.298248
 20
437.977417
 30
0.0
  0
VERTEX
  5
114
330
112
100
AcDbEntity
  8
0
370
     0
100
AcDbVertex
100
AcDb2dVertex
 10
126.749847
 20
437.977417
 30
0.0
  0
SEQEND
  5
115
330
112
100
AcDbEntity
  8
0
 62
     7
370
    13
  0
POLYLINE
  5
116
330
1F
100
AcDbEntity
  8
0
 62
     7
370
    13
100
AcDb2dPolyline
 66
     1
 10
0.0
 20
0.0
 30
0.0
  0
VERTEX
  5
117
330
116
100
AcDbEntity
  8
0
370
     0
100
AcDbVertex
100
AcDb2dVertex
 10
122.459534
 20
458.16452
 30
0.0
  0
VERTEX
  5
118
330
116
100
AcDbEntity
  8
0
370
     0
100
AcDbVertex
100
AcDb2dVertex
 10
122.459534
 20
447.777405
 30
0.0
  0
VERTEX
  5
119
330
116
100
AcDbEntity
  8
0
370
     0
100
AcDbVertex
100
AcDb2dVertex
 10
113.427277
 20
455.454834
 30
0.0
  0
VERTEX
  5
11A
330
116
100
AcDbEntity
  8
0
370
     0
100
AcDbVertex
100
AcDb2dVertex
 10
120.201477
 20
455.454834
 30
0.0
  0
VERTEX
  5
11B
330
116
100
AcDbEntity
  8
0
370
     0
100
AcDbVertex
100
AcDb2dVertex
 10
127.427277
 20
455.454834
 30
0.0
  0
SEQEND
  5
11C
330
116
100
AcDbEntity
  8
0
 62
     7
370
    13
  0
LINE
  5
11D
330
1F
100
AcDbEntity
  8
0
 62
     7
370
    13
100
AcDbLine
 10
226.5
 20
212.300003
 30
0.0
 11
127.427277
 21
212.300003
 31
0.0
  0
LINE
  5
11E
330
1F
100
AcDbEntity
  8
0
 62
     7
370
    13
100
AcDbLine
 10
226.5
 20
628.700012
 30
0.0
 11
127.427277
 21
628.700012
 31
0.0
  0
POLYLINE
  5
11F
330
1F
100
AcDbEntity
  8
0
 62
     7
370
    13
100
AcDb2dPolyline
 66
     1
 10
0.0
 20
0.0
 30
0.0
  0
VERTEX
  5
120
330
11F
100
AcDbEntity
  8
0
370
     0
100
AcDbVertex
100
AcDb2dVertex
 10
129.944916
 20
626.768127
 30
0.0
  0
VERTEX
  5
121
330
11F
100
AcDbEntity
  8
0
370
     0
100
AcDbVertex
100
AcDb2dVertex
 10
129.427277
 20
628.700012
 30
0.0
  0
VERTEX
  5
122
330
11F
100
AcDbEntity
  8
0
370
     0
100
AcDbVertex
100
AcDb2dVertex
 10
128.909637
 20
626.768127
 30
0.0
  0
SEQEND
  5
123
330
11F
100
AcDbEntity
  8
0
 62
     7
370
    13
  0
POLYLINE
  5
124
330
1F
100
AcDbEntity
  8
0
 62
     7
370
    13
100
AcDb2dPolyline
 66
     1
 10
0.0
 20
0.0
 30
0.0
  0
VERTEX
  5
125
330
124
100
AcDbEntity
  8
0
370
     0
100
AcDbVertex
100
AcDb2dVertex
 10
128.909637
 20
214.231857
 30
0.0
  0
VERTEX
  5
126
330
124
100
AcDbEntity
  8
0
370
     0
100
AcDbVertex
100
AcDb2dVertex
 10
129.427277
 20
212.300003
 30
0.0
  0
VERTEX
  5
127
330
124
100
AcDbEntity
  8
0
370
     0
100
AcDbVertex
100
AcDb2dVertex
 10
129.944916
 20
214.231857
 30
0.0
  0
SEQEND
  5
128
330
124
100
AcDbEntity
  8
0
 62
     7
370
    13
  0
LINE
  5
129
330
1F
100
AcDbEntity
  8
0
 62
     7
370
    13
100
AcDbLine
 10
129.427277
 20
212.300003
 30
0.0
 11
129.427277
 21
628.700012
 31
0.0
  0
POLYLINE
  5
12A
330
1F
100
AcDbEntity
  8
0
 62
     7
370
    13
100
AcDb2dPolyline
 66
     1
 10
0.0
 20
0.0
 30
0.0
  0
VERTEX
  5
12B
330
12A
100
AcDbEntity
  8
0
370
     0
100
AcDbVertex
100
AcDb2dVertex
 10
871.911926
 20
319.08429
 30
0.0
  0
VERTEX
  5
12C
330
12A
100
AcDbEntity
  8
0
370
     0
100
AcDbVertex
100
AcDb2dVertex
 10
876.299194
 20
319.132202
 30
0.0
  0
VERTEX
  5
12D
330
12A
100
AcDbEntity
  8
0
370
     0
100
AcDbVertex
100
AcDb2dVertex
 10
864.713135
 20
302.829987
 30
0.0
  0
SEQEND
  5
12E
330
12A
100
AcDbEntity
  8
0
 62
     7
370
    13
  0
POLYLINE
  5
12F
330
1F
100
AcDbEntity
  8
0
 62
     7
370
    13
100
AcDb2dPolyline
 66
     1
 10
0.0
 20
0.0
 30
0.0
  0
VERTEX
  5
130
330
12F
100
AcDbEntity
  8
0
370
     0
100
AcDbVertex
100
AcDb2dVertex
 10
869.773682
 20
319.416718
 30
0.0
  0
VERTEX
  5
131
330
12F
100
AcDbEntity
  8
0
370
     0
100
AcDbVertex
100
AcDb2dVertex
 10
871.911926
 20
319.08429
 30
0.0
  0
SEQEND
  5
132
330
12F
100
AcDbEntity
  8
0
 62
     7
370
    13
  0
POLYLINE
  5
133
330
1F
100
AcDbEntity
  8
0
 62
     7
370
    13
100
AcDb2dPolyline
 66
     1
 10
0.0
 20
0.0
 30
0.0
  0
VERTEX
  5
134
330
133
100
AcDbEntity
  8
0
370
     0
100
AcDbVertex
100
AcDb2dVertex
 10
878.969116
 20
297.051422
 30
0.0
  0
VERTEX
  5
135
330
133
100
AcDbEntity
  8
0
370
     0
100
AcDbVertex
100
AcDb2dVertex
 10
878.823547
 20
295.176117
 30
0.0
  0
VERTEX
  5
136
330
133
100
AcDbEntity
  8
0
370
     0
100
AcDbVertex
100
AcDb2dVertex
 10
879.051758
 20
293.826691
 30
0.0
  0
VERTEX
  5
137
330
133
100
AcDbEntity
  8
0
370
     0
100
AcDbVertex
100
AcDb2dVertex
 10
881.383423
 20
290.982269
 30
0.0
  0
VERTEX
  5
138
330
133
100
AcDbEntity
  8
0
370
     0
100
AcDbVertex
100
AcDb2dVertex
 10
884.275757
 20
288.926697
 30
0.0
  0
VERTEX
  5
139
330
133
100
AcDbEntity
  8
0
370
     0
100
AcDbVertex
100
AcDb2dVertex
 10
887.991699
 20
287.473022
 30
0.0
  0
VERTEX
  5
13A
330
133
100
AcDbEntity
  8
0
370
     0
100
AcDbVertex
100
AcDb2dVertex
 10
890.690552
 20
287.929443
 30
0.0
  0
VERTEX
  5
13B
330
133
100
AcDbEntity
  8
0
370
     0
100
AcDbVertex
100
AcDb2dVertex
 10
893.161255
 20
289.73526
 30
0.0
  0
VERTEX
  5
13C
330
133
100
AcDbEntity
  8
0
370
     0
100
AcDbVertex
100
AcDb2dVertex
 10
894.282471
 20
291.312866
 30
0.0
  0
VERTEX
  5
13D
330
133
100
AcDbEntity
  8
0
370
     0
100
AcDbVertex
100
AcDb2dVertex
 10
895.175476
 20
294.23996
 30
0.0
  0
VERTEX
  5
13E
330
133
100
AcDbEntity
  8
0
370
     0
100
AcDbVertex
100
AcDb2dVertex
 10
894.532227
 20
296.675903
 30
0.0
  0
VERTEX
  5
13F
330
133
100
AcDbEntity
  8
0
370
     0
100
AcDbVertex
100
AcDb2dVertex
 10
891.937561
 20
299.707184
 30
0.0
  0
VERTEX
  5
140
330
133
100
AcDbEntity
  8
0
370
     0
100
AcDbVertex
100
AcDb2dVertex
 10
889.045227
 20
301.762756
 30
0.0
  0
VERTEX
  5
141
330
133
100
AcDbEntity
  8
0
370
     0
100
AcDbVertex
100
AcDb2dVertex
 10
886.118164
 20
302.655823
 30
0.0
  0
VERTEX
  5
142
330
133
100
AcDbEntity
  8
0
370
     0
100
AcDbVertex
100
AcDb2dVertex
 10
884.768677
 20
302.427612
 30
0.0
  0
VERTEX
  5
143
330
133
100
AcDbEntity
  8
0
370
     0
100
AcDbVertex
100
AcDb2dVertex
 10
890.603088
 20
308.966339
 30
0.0
  0
VERTEX
  5
144
330
133
100
AcDbEntity
  8
0
370
     0
100
AcDbVertex
100
AcDb2dVertex
 10
900.331848
 20
302.052063
 30
0.0
  0
SEQEND
  5
145
330
133
100
AcDbEntity
  8
0
 62
     7
370
    13
  0
POLYLINE
  5
146
330
1F
100
AcDbEntity
  8
0
 62
     7
370
    13
100
AcDb2dPolyline
 66
     1
 10
0.0
 20
0.0
 30
0.0
  0
VERTEX
  5
147
330
146
100
AcDbEntity
  8
0
370
     0
100
AcDbVertex
100
AcDb2dVertex
 10
861.2854
 20
329.802612
 30
0.0
  0
VERTEX
  5
148
330
146
100
AcDbEntity
  8
0
370
     0
100
AcDbVertex
100
AcDb2dVertex
 10
852.345459
 20
336.156281
 30
0.0
  0
SEQEND
  5
149
330
146
100
AcDbEntity
  8
0
 62
     7
370
    13
  0
POLYLINE
  5
14A
330
1F
100
AcDbEntity
  8
0
 62
     7
370
    13
100
AcDb2dPolyline
 66
     1
 10
0.0
 20
0.0
 30
0.0
  0
VERTEX
  5
14B
330
14A
100
AcDbEntity
  8
0
370
     0
100
AcDbVertex
100
AcDb2dVertex
 10
846.739258
 20
328.268127
 30
0.0
  0
VERTEX
  5
14C
330
14A
100
AcDbEntity
  8
0
370
     0
100
AcDbVertex
100
AcDb2dVertex
 10
856.205078
 20
321.54071
 30
0.0
  0
SEQEND
  5
14D
330
14A
100
AcDbEntity
  8
0
 62
     7
370
    13
  0
POLYLINE
  5
14E
330
1F
100
AcDbEntity
  8
0
 62
     7
370
    13
100
AcDb2dPolyline
 66
     1
 10
0.0
 20
0.0
 30
0.0
  0
VERTEX
  5
14F
330
14E
100
AcDbEntity
  8
0
370
     0
100
AcDbVertex
100
AcDb2dVertex
 10
852.345459
 20
336.156281
 30
0.0
  0
VERTEX
  5
150
330
14E
100
AcDbEntity
  8
0
370
     0
100
AcDbVertex
100
AcDb2dVertex
 10
840.759338
 20
319.854065
 30
0.0
  0
SEQEND
  5
151
330
14E
100
AcDbEntity
  8
0
 62
     7
370
    13
  0
POLYLINE
  5
152
330
1F
100
AcDbEntity
  8
0
 62
     7
370
    13
100
AcDb2dPolyline
 66
     1
 10
0.0
 20
0.0
 30
0.0
  0
VERTEX
  5
153
330
152
100
AcDbEntity
  8
0
370
     0
100
AcDbVertex
100
AcDb2dVertex
 10
861.2854
 20
329.802612
 30
0.0
  0
VERTEX
  5
154
330
152
100
AcDbEntity
  8
0
370
     0
100
AcDbVertex
100
AcDb2dVertex
 10
862.565308
 20
327.705688
 30
0.0
  0
VERTEX
  5
155
330
152
100
AcDbEntity
  8
0
370
     0
100
AcDbVertex
100
AcDb2dVertex
 10
863.097778
 20
324.557007
 30
0.0
  0
VERTEX
  5
156
330
152
100
AcDbEntity
  8
0
370
     0
100
AcDbVertex
100
AcDb2dVertex
 10
861.229004
 20
321.927643
 30
0.0
  0
VERTEX
  5
157
330
152
100
AcDbEntity
  8
0
370
     0
100
AcDbVertex
100
AcDb2dVertex
 10
858.793091
 20
321.284363
 30
0.0
  0
VERTEX
  5
158
330
152
100
AcDbEntity
  8
0
370
     0
100
AcDbVertex
100
AcDb2dVertex
 10
856.205078
 20
321.54071
 30
0.0
  0
SEQEND
  5
159
330
152
100
AcDbEntity
  8
0
 62
     7
370
    13
  0
POLYLINE
  5
15A
330
1F
100
AcDbEntity
  8
0
 62
     7
370
    13
100
AcDb2dPolyline
 66
     1
 10
0.0
 20
0.0
 30
0.0
  0
VERTEX
  5
15B
330
15A
100
AcDbEntity
  8
0
370
     0
100
AcDbVertex
100
AcDb2dVertex
 10
854.101562
 20
323.035706
 30
0.0
  0
VERTEX
  5
15C
330
15A
100
AcDbEntity
  8
0
370
     0
100
AcDbVertex
100
AcDb2dVertex
 10
853.380371
 20
310.884186
 30
0.0
  0
SEQEND
  5
15D
330
15A
100
AcDbEntity
  8
0
 62
     7
370
    13
  0
POLYLINE
  5
15E
330
1F
100
AcDbEntity
  8
0
 62
     7
370
    13
100
AcDb2dPolyline
 66
     1
 10
0.0
 20
0.0
 30
0.0
  0
VERTEX
  5
15F
330
15E
100
AcDbEntity
  8
0
370
     0
100
AcDbVertex
100
AcDb2dVertex
 10
970.852112
 20
224.307632
 30
0.0
  0
VERTEX
  5
160
330
15E
100
AcDbEntity
  8
0
370
     0
100
AcDbVertex
100
AcDb2dVertex
 10
972.726685
 20
223.610428
 30
0.0
  0
VERTEX
  5
161
330
15E
100
AcDbEntity
  8
0
370
     0
100
AcDbVertex
100
AcDb2dVertex
 10
971.451904
 20
225.151489
 30
0.0
  0
SEQEND
  5
162
330
15E
100
AcDbEntity
  8
0
 62
     7
370
    13
  0
LINE
  5
163
330
1F
100
AcDbEntity
  8
0
 62
     7
370
    13
100
AcDbLine
 10
972.726685
 20
223.610428
 30
0.0
 11
838.54895
 21
318.971344
 31
0.0
  0
POLYLINE
  5
164
330
1F
100
AcDbEntity
  8
0
 62
     7
370
    13
100
AcDb2dPolyline
 66
     1
 10
0.0
 20
0.0
 30
0.0
  0
VERTEX
  5
165
330
164
100
AcDbEntity
  8
0
370
     0
100
AcDbVertex
100
AcDb2dVertex
 10
316.472595
 20
334.830627
 30
0.0
  0
VERTEX
  5
166
330
164
100
AcDbEntity
  8
0
370
     0
100
AcDbVertex
100
AcDb2dVertex
 10
306.217102
 20
323.230011
 30
0.0
  0
VERTEX
  5
167
330
164
100
AcDbEntity
  8
0
370
     0
100
AcDbVertex
100
AcDb2dVertex
 10
306.714386
 20
337.429504
 30
0.0
  0
VERTEX
  5
168
330
164
100
AcDbEntity
  8
0
370
     0
100
AcDbVertex
100
AcDb2dVertex
 10
306.27655
 20
340.830536
 30
0.0
  0
VERTEX
  5
169
330
164
100
AcDbEntity
  8
0
370
     0
100
AcDbVertex
100
AcDb2dVertex
 10
305.467438
 20
342.837494
 30
0.0
  0
VERTEX
  5
16A
330
164
100
AcDbEntity
  8
0
370
     0
100
AcDbVertex
100
AcDb2dVertex
 10
304.017365
 20
344.119446
 30
0.0
  0
VERTEX
  5
16B
330
164
100
AcDbEntity
  8
0
370
     0
100
AcDbVertex
100
AcDb2dVertex
 10
301.684631
 20
344.890015
 30
0.0
  0
VERTEX
  5
16C
330
164
100
AcDbEntity
  8
0
370
     0
100
AcDbVertex
100
AcDb2dVertex
 10
300.076935
 20
345.019592
 30
0.0
  0
VERTEX
  5
16D
330
164
100
AcDbEntity
  8
0
370
     0
100
AcDbVertex
100
AcDb2dVertex
 10
297.856323
 20
343.968811
 30
0.0
  0
VERTEX
  5
16E
330
164
100
AcDbEntity
  8
0
370
     0
100
AcDbVertex
100
AcDb2dVertex
 10
295.292419
 20
341.068665
 30
0.0
  0
VERTEX
  5
16F
330
164
100
AcDbEntity
  8
0
370
     0
100
AcDbVertex
100
AcDb2dVertex
 10
294.521881
 20
338.735901
 30
0.0
  0
VERTEX
  5
170
330
164
100
AcDbEntity
  8
0
370
     0
100
AcDbVertex
100
AcDb2dVertex
 10
294.605927
 20
337.369904
 30
0.0
  0
VERTEX
  5
171
330
164
100
AcDbEntity
  8
0
370
     0
100
AcDbVertex
100
AcDb2dVertex
 10
295.201385
 20
335.121246
 30
0.0
  0
VERTEX
  5
172
330
164
100
AcDbEntity
  8
0
370
     0
100
AcDbVertex
100
AcDb2dVertex
 10
295.926422
 20
334.480286
 30
0.0
  0
SEQEND
  5
173
330
164
100
AcDbEntity
  8
0
 62
     7
370
    13
  0
POLYLINE
  5
174
330
1F
100
AcDbEntity
  8
0
 62
     7
370
    13
100
AcDb2dPolyline
 66
     1
 10
0.0
 20
0.0
 30
0.0
 70
     1
  0
VERTEX
  5
175
330
174
100
AcDbEntity
  8
0
370
     0
100
AcDbVertex
100
AcDb2dVertex
 10
310.974854
 20
358.807922
 30
0.0
  0
VERTEX
  5
176
330
174
100
AcDbEntity
  8
0
370
     0
100
AcDbVertex
100
AcDb2dVertex
 10
309.34964
 20
355.508484
 30
0.0
  0
VERTEX
  5
177
330
174
100
AcDbEntity
  8
0
370
     0
100
AcDbVertex
100
AcDb2dVertex
 10
310.270844
 20
351.680176
 30
0.0
  0
VERTEX
  5
178
330
174
100
AcDbEntity
  8
0
370
     0
100
AcDbVertex
100
AcDb2dVertex
 10
312.046661
 20
348.818542
 30
0.0
  0
VERTEX
  5
179
330
174
100
AcDbEntity
  8
0
370
     0
100
AcDbVertex
100
AcDb2dVertex
 10
315.188507
 20
346.041016
 30
0.0
  0
VERTEX
  5
17A
330
174
100
AcDbEntity
  8
0
370
     0
100
AcDbVertex
100
AcDb2dVertex
 10
318.971313
 20
343.988525
 30
0.0
  0
VERTEX
  5
17B
330
174
100
AcDbEntity
  8
0
370
     0
100
AcDbVertex
100
AcDb2dVertex
 10
322.883698
 20
343.543701
 30
0.0
  0
VERTEX
  5
17C
330
174
100
AcDbEntity
  8
0
370
     0
100
AcDbVertex
100
AcDb2dVertex
 10
325.958984
 20
345.561218
 30
0.0
  0
VERTEX
  5
17D
330
174
100
AcDbEntity
  8
0
370
     0
100
AcDbVertex
100
AcDb2dVertex
 10
327.668213
 20
347.494659
 30
0.0
  0
VERTEX
  5
17E
330
174
100
AcDbEntity
  8
0
370
     0
100
AcDbVertex
100
AcDb2dVertex
 10
329.293427
 20
350.794098
 30
0.0
  0
VERTEX
  5
17F
330
174
100
AcDbEntity
  8
0
370
     0
100
AcDbVertex
100
AcDb2dVertex
 10
328.372192
 20
354.622437
 30
0.0
  0
VERTEX
  5
180
330
174
100
AcDbEntity
  8
0
370
     0
100
AcDbVertex
100
AcDb2dVertex
 10
326.113037
 20
357.911346
 30
0.0
  0
VERTEX
  5
181
330
174
100
AcDbEntity
  8
0
370
     0
100
AcDbVertex
100
AcDb2dVertex
 10
322.729523
 20
360.902527
 30
0.0
  0
VERTEX
  5
182
330
174
100
AcDbEntity
  8
0
370
     0
100
AcDbVertex
100
AcDb2dVertex
 10
319.671722
 20
362.314087
 30
0.0
  0
VERTEX
  5
183
330
174
100
AcDbEntity
  8
0
370
     0
100
AcDbVertex
100
AcDb2dVertex
 10
315.759369
 20
362.758881
 30
0.0
  0
VERTEX
  5
184
330
174
100
AcDbEntity
  8
0
370
     0
100
AcDbVertex
100
AcDb2dVertex
 10
312.684082
 20
360.741364
 30
0.0
  0
SEQEND
  5
185
330
174
100
AcDbEntity
  8
0
 62
     7
370
    13
  0
POLYLINE
  5
186
330
1F
100
AcDbEntity
  8
0
 62
     7
370
    13
100
AcDb2dPolyline
 66
     1
 10
0.0
 20
0.0
 30
0.0
  0
VERTEX
  5
187
330
186
100
AcDbEntity
  8
0
370
     0
100
AcDbVertex
100
AcDb2dVertex
 10
284.588257
 20
328.96051
 30
0.0
  0
VERTEX
  5
188
330
186
100
AcDbEntity
  8
0
370
     0
100
AcDbVertex
100
AcDb2dVertex
 10
277.323914
 20
320.743408
 30
0.0
  0
SEQEND
  5
189
330
186
100
AcDbEntity
  8
0
 62
     7
370
    13
  0
POLYLINE
  5
18A
330
1F
100
AcDbEntity
  8
0
 62
     7
370
    13
100
AcDb2dPolyline
 66
     1
 10
0.0
 20
0.0
 30
0.0
  0
VERTEX
  5
18B
330
18A
100
AcDbEntity
  8
0
370
     0
100
AcDbVertex
100
AcDb2dVertex
 10
284.57428
 20
314.333679
 30
0.0
  0
VERTEX
  5
18C
330
18A
100
AcDbEntity
  8
0
370
     0
100
AcDbVertex
100
AcDb2dVertex
 10
292.26593
 20
323.034149
 30
0.0
  0
SEQEND
  5
18D
330
18A
100
AcDbEntity
  8
0
 62
     7
370
    13
  0
POLYLINE
  5
18E
330
1F
100
AcDbEntity
  8
0
 62
     7
370
    13
100
AcDb2dPolyline
 66
     1
 10
0.0
 20
0.0
 30
0.0
  0
VERTEX
  5
18F
330
18E
100
AcDbEntity
  8
0
370
     0
100
AcDbVertex
100
AcDb2dVertex
 10
277.323914
 20
320.743408
 30
0.0
  0
VERTEX
  5
190
330
18E
100
AcDbEntity
  8
0
370
     0
100
AcDbVertex
100
AcDb2dVertex
 10
292.308044
 20
307.496674
 30
0.0
  0
SEQEND
  5
191
330
18E
100
AcDbEntity
  8
0
 62
     7
370
    13
  0
POLYLINE
  5
192
330
1F
100
AcDbEntity
  8
0
 62
     7
370
    13
100
AcDb2dPolyline
 66
     1
 10
0.0
 20
0.0
 30
0.0
  0
VERTEX
  5
193
330
192
100
AcDbEntity
  8
0
370
     0
100
AcDbVertex
100
AcDb2dVertex
 10
284.588257
 20
328.96051
 30
0.0
  0
VERTEX
  5
194
330
192
100
AcDbEntity
  8
0
370
     0
100
AcDbVertex
100
AcDb2dVertex
 10
286.808899
 20
330.011292
 30
0.0
  0
VERTEX
  5
195
330
192
100
AcDbEntity
  8
0
370
     0
100
AcDbVertex
100
AcDb2dVertex
 10
289.996216
 20
330.207458
 30
0.0
  0
VERTEX
  5
196
330
192
100
AcDbEntity
  8
0
370
     0
100
AcDbVertex
100
AcDb2dVertex
 10
292.413025
 20
328.070862
 30
0.0
  0
VERTEX
  5
197
330
192
100
AcDbEntity
  8
0
370
     0
100
AcDbVertex
100
AcDb2dVertex
 10
292.79483
 20
325.580536
 30
0.0
  0
VERTEX
  5
198
330
192
100
AcDbEntity
  8
0
370
     0
100
AcDbVertex
100
AcDb2dVertex
 10
292.26593
 20
323.034149
 30
0.0
  0
SEQEND
  5
199
330
192
100
AcDbEntity
  8
0
 62
     7
370
    13
  0
POLYLINE
  5
19A
330
1F
100
AcDbEntity
  8
0
 62
     7
370
    13
100
AcDb2dPolyline
 66
     1
 10
0.0
 20
0.0
 30
0.0
  0
VERTEX
  5
19B
330
19A
100
AcDbEntity
  8
0
370
     0
100
AcDbVertex
100
AcDb2dVertex
 10
290.556671
 20
321.100708
 30
0.0
  0
VERTEX
  5
19C
330
19A
100
AcDbEntity
  8
0
370
     0
100
AcDbVertex
100
AcDb2dVertex
 10
302.563568
 20
319.09729
 30
0.0
  0
SEQEND
  5
19D
330
19A
100
AcDbEntity
  8
0
 62
     7
370
    13
  0
POLYLINE
  5
19E
330
1F
100
AcDbEntity
  8
0
 62
     7
370
    13
100
AcDb2dPolyline
 66
     1
 10
0.0
 20
0.0
 30
0.0
  0
VERTEX
  5
19F
330
19E
100
AcDbEntity
  8
0
370
     0
100
AcDbVertex
100
AcDb2dVertex
 10
216.144989
 20
219.106064
 30
0.0
  0
VERTEX
  5
1A0
330
19E
100
AcDbEntity
  8
0
370
     0
100
AcDbVertex
100
AcDb2dVertex
 10
215.253296
 20
217.315857
 30
0.0
  0
VERTEX
  5
1A1
330
19E
100
AcDbEntity
  8
0
370
     0
100
AcDbVertex
100
AcDb2dVertex
 10
216.920624
 20
218.420364
 30
0.0
  0
SEQEND
  5
1A2
330
19E
100
AcDbEntity
  8
0
 62
     7
370
    13
  0
LINE
  5
1A3
330
1F
100
AcDbEntity
  8
0
 62
     7
370
    13
100
AcDbLine
 10
215.253296
 20
217.315857
 30
0.0
 11
334.72171
 21
352.453674
 31
0.0
  0
POLYLINE
  5
1A4
330
1F
100
AcDbEntity
  8
0
 62
     7
370
    13
100
AcDb2dPolyline
 66
     1
 10
0.0
 20
0.0
 30
0.0
  0
VERTEX
  5
1A5
330
1A4
100
AcDbEntity
  8
0
370
     0
100
AcDbVertex
100
AcDb2dVertex
 10
168.41571
 20
392.770966
 30
0.0
  0
VERTEX
  5
1A6
330
1A4
100
AcDbEntity
  8
0
370
     0
100
AcDbVertex
100
AcDb2dVertex
 10
168.41571
 20
382.383881
 30
0.0
  0
VERTEX
  5
1A7
330
1A4
100
AcDbEntity
  8
0
370
     0
100
AcDbVertex
100
AcDb2dVertex
 10
159.383453
 20
390.061279
 30
0.0
  0
VERTEX
  5
1A8
330
1A4
100
AcDbEntity
  8
0
370
     0
100
AcDbVertex
100
AcDb2dVertex
 10
166.157654
 20
390.061279
 30
0.0
  0
VERTEX
  5
1A9
330
1A4
100
AcDbEntity
  8
0
370
     0
100
AcDbVertex
100
AcDb2dVertex
 10
173.383453
 20
390.061279
 30
0.0
  0
SEQEND
  5
1AA
330
1A4
100
AcDbEntity
  8
0
 62
     7
370
    13
  0
POLYLINE
  5
1AB
330
1F
100
AcDbEntity
  8
0
 62
     7
370
    13
100
AcDb2dPolyline
 66
     1
 10
0.0
 20
0.0
 30
0.0
 70
     1
  0
VERTEX
  5
1AC
330
1AB
100
AcDbEntity
  8
0
370
     0
100
AcDbVertex
100
AcDb2dVertex
 10
159.383453
 20
403.248383
 30
0.0
  0
VERTEX
  5
1AD
330
1AB
100
AcDbEntity
  8
0
370
     0
100
AcDbVertex
100
AcDb2dVertex
 10
160.060883
 20
400.764526
 30
0.0
  0
VERTEX
  5
1AE
330
1AB
100
AcDbEntity
  8
0
370
     0
100
AcDbVertex
100
AcDb2dVertex
 10
162.318939
 20
399.183868
 30
0.0
  0
VERTEX
  5
1AF
330
1AB
100
AcDbEntity
  8
0
370
     0
100
AcDbVertex
100
AcDb2dVertex
 10
164.576996
 20
398.506439
 30
0.0
  0
VERTEX
  5
1B0
330
1AB
100
AcDbEntity
  8
0
370
     0
100
AcDbVertex
100
AcDb2dVertex
 10
167.512482
 20
398.506439
 30
0.0
  0
VERTEX
  5
1B1
330
1AB
100
AcDbEntity
  8
0
370
     0
100
AcDbVertex
100
AcDb2dVertex
 10
170.447968
 20
399.183868
 30
0.0
  0
VERTEX
  5
1B2
330
1AB
100
AcDbEntity
  8
0
370
     0
100
AcDbVertex
100
AcDb2dVertex
 10
172.706024
 20
400.764526
 30
0.0
  0
VERTEX
  5
1B3
330
1AB
100
AcDbEntity
  8
0
370
     0
100
AcDbVertex
100
AcDb2dVertex
 10
173.383453
 20
403.248383
 30
0.0
  0
VERTEX
  5
1B4
330
1AB
100
AcDbEntity
  8
0
370
     0
100
AcDbVertex
100
AcDb2dVertex
 10
173.383453
 20
405.05484
 30
0.0
  0
VERTEX
  5
1B5
330
1AB
100
AcDbEntity
  8
0
370
     0
100
AcDbVertex
100
AcDb2dVertex
 10
172.706024
 20
407.538696
 30
0.0
  0
VERTEX
  5
1B6
330
1AB
100
AcDbEntity
  8
0
370
     0
100
AcDbVertex
100
AcDb2dVertex
 10
170.447968
 20
409.119354
 30
0.0
  0
VERTEX
  5
1B7
330
1AB
100
AcDbEntity
  8
0
370
     0
100
AcDbVertex
100
AcDb2dVertex
 10
167.738281
 20
409.796783
 30
0.0
  0
VERTEX
  5
1B8
330
1AB
100
AcDbEntity
  8
0
370
     0
100
AcDbVertex
100
AcDb2dVertex
 10
164.576996
 20
409.796783
 30
0.0
  0
VERTEX
  5
1B9
330
1AB
100
AcDbEntity
  8
0
370
     0
100
AcDbVertex
100
AcDb2dVertex
 10
162.318939
 20
409.119354
 30
0.0
  0
VERTEX
  5
1BA
330
1AB
100
AcDbEntity
  8
0
370
     0
100
AcDbVertex
100
AcDb2dVertex
 10
160.060883
 20
407.538696
 30
0.0
  0
VERTEX
  5
1BB
330
1AB
100
AcDbEntity
  8
0
370
     0
100
AcDbVertex
100
AcDb2dVertex
 10
159.383453
 20
405.05484
 30
0.0
  0
SEQEND
  5
1BC
330
1AB
100
AcDbEntity
  8
0
 62
     7
370
    13
  0
POLYLINE
  5
1BD
330
1F
100
AcDbEntity
  8
0
 62
     7
370
    13
100
AcDb2dPolyline
 66
     1
 10
0.0
 20
0.0
 30
0.0
  0
VERTEX
  5
1BE
330
1BD
100
AcDbEntity
  8
0
370
     0
100
AcDbVertex
100
AcDb2dVertex
 10
161.189911
 20
425.016113
 30
0.0
  0
VERTEX
  5
1BF
330
1BD
100
AcDbEntity
  8
0
370
     0
100
AcDbVertex
100
AcDb2dVertex
 10
160.060883
 20
424.338715
 30
0.0
  0
VERTEX
  5
1C0
330
1BD
100
AcDbEntity
  8
0
370
     0
100
AcDbVertex
100
AcDb2dVertex
 10
159.383453
 20
421.854828
 30
0.0
  0
VERTEX
  5
1C1
330
1BD
100
AcDbEntity
  8
0
370
     0
100
AcDbVertex
100
AcDb2dVertex
 10
159.383453
 20
420.5
 30
0.0
  0
VERTEX
  5
1C2
330
1BD
100
AcDbEntity
  8
0
370
     0
100
AcDbVertex
100
AcDb2dVertex
 10
160.060883
 20
418.016113
 30
0.0
  0
VERTEX
  5
1C3
330
1BD
100
AcDbEntity
  8
0
370
     0
100
AcDbVertex
100
AcDb2dVertex
 10
161.86731
 20
416.435486
 30
0.0
  0
VERTEX
  5
1C4
330
1BD
100
AcDbEntity
  8
0
370
     0
100
AcDbVertex
100
AcDb2dVertex
 10
165.028625
 20
415.758057
 30
0.0
  0
VERTEX
  5
1C5
330
1BD
100
AcDbEntity
  8
0
370
     0
100
AcDbVertex
100
AcDb2dVertex
 10
168.189911
 20
415.758057
 30
0.0
  0
VERTEX
  5
1C6
330
1BD
100
AcDbEntity
  8
0
370
     0
100
AcDbVertex
100
AcDb2dVertex
 10
170.673767
 20
416.435486
 30
0.0
  0
VERTEX
  5
1C7
330
1BD
100
AcDbEntity
  8
0
370
     0
100
AcDbVertex
100
AcDb2dVertex
 10
172.254425
 20
417.790314
 30
0.0
  0
VERTEX
  5
1C8
330
1BD
100
AcDbEntity
  8
0
370
     0
100
AcDbVertex
100
AcDb2dVertex
 10
173.383453
 20
420.2742
 30
0.0
  0
VERTEX
  5
1C9
330
1BD
100
AcDbEntity
  8
0
370
     0
100
AcDbVertex
100
AcDb2dVertex
 10
173.383453
 20
421.177429
 30
0.0
  0
VERTEX
  5
1CA
330
1BD
100
AcDbEntity
  8
0
370
     0
100
AcDbVertex
100
AcDb2dVertex
 10
172.706024
 20
423.661285
 30
0.0
  0
VERTEX
  5
1CB
330
1BD
100
AcDbEntity
  8
0
370
     0
100
AcDbVertex
100
AcDb2dVertex
 10
171.351196
 20
425.016113
 30
0.0
  0
VERTEX
  5
1CC
330
1BD
100
AcDbEntity
  8
0
370
     0
100
AcDbVertex
100
AcDb2dVertex
 10
169.544739
 20
425.693542
 30
0.0
  0
VERTEX
  5
1CD
330
1BD
100
AcDbEntity
  8
0
370
     0
100
AcDbVertex
100
AcDb2dVertex
 10
168.86731
 20
425.693542
 30
0.0
  0
VERTEX
  5
1CE
330
1BD
100
AcDbEntity
  8
0
370
     0
100
AcDbVertex
100
AcDb2dVertex
 10
167.060883
 20
425.016113
 30
0.0
  0
VERTEX
  5
1CF
330
1BD
100
AcDbEntity
  8
0
370
     0
100
AcDbVertex
100
AcDb2dVertex
 10
165.706024
 20
423.661285
 30
0.0
  0
VERTEX
  5
1D0
330
1BD
100
AcDbEntity
  8
0
370
     0
100
AcDbVertex
100
AcDb2dVertex
 10
165.028625
 20
421.177429
 30
0.0
  0
VERTEX
  5
1D1
330
1BD
100
AcDbEntity
  8
0
370
     0
100
AcDbVertex
100
AcDb2dVertex
 10
165.028625
 20
420.2742
 30
0.0
  0
VERTEX
  5
1D2
330
1BD
100
AcDbEntity
  8
0
370
     0
100
AcDbVertex
100
AcDb2dVertex
 10
165.706024
 20
417.790314
 30
0.0
  0
VERTEX
  5
1D3
330
1BD
100
AcDbEntity
  8
0
370
     0
100
AcDbVertex
100
AcDb2dVertex
 10
166.835052
 20
416.435486
 30
0.0
  0
VERTEX
  5
1D4
330
1BD
100
AcDbEntity
  8
0
370
     0
100
AcDbVertex
100
AcDb2dVertex
 10
168.41571
 20
415.758057
 30
0.0
  0
SEQEND
  5
1D5
330
1BD
100
AcDbEntity
  8
0
 62
     7
370
    13
  0
POLYLINE
  5
1D6
330
1F
100
AcDbEntity
  8
0
 62
     7
370
    13
100
AcDb2dPolyline
 66
     1
 10
0.0
 20
0.0
 30
0.0
  0
VERTEX
  5
1D7
330
1D6
100
AcDbEntity
  8
0
370
     0
100
AcDbVertex
100
AcDb2dVertex
 10
173.383453
 20
436.848389
 30
0.0
  0
VERTEX
  5
1D8
330
1D6
100
AcDbEntity
  8
0
370
     0
100
AcDbVertex
100
AcDb2dVertex
 10
173.383453
 20
437.299988
 30
0.0
  0
SEQEND
  5
1D9
330
1D6
100
AcDbEntity
  8
0
 62
     7
370
    13
  0
POLYLINE
  5
1DA
330
1F
100
AcDbEntity
  8
0
 62
     7
370
    13
100
AcDb2dPolyline
 66
     1
 10
0.0
 20
0.0
 30
0.0
  0
VERTEX
  5
1DB
330
1DA
100
AcDbEntity
  8
0
370
     0
100
AcDbVertex
100
AcDb2dVertex
 10
172.254425
 20
437.977417
 30
0.0
  0
VERTEX
  5
1DC
330
1DA
100
AcDbEntity
  8
0
370
     0
100
AcDbVertex
100
AcDb2dVertex
 10
171.576996
 20
437.299988
 30
0.0
  0
SEQEND
  5
1DD
330
1DA
100
AcDbEntity
  8
0
 62
     7
370
    13
  0
POLYLINE
  5
1DE
330
1F
100
AcDbEntity
  8
0
 62
     7
370
    13
100
AcDb2dPolyline
 66
     1
 10
0.0
 20
0.0
 30
0.0
  0
VERTEX
  5
1DF
330
1DE
100
AcDbEntity
  8
0
370
     0
100
AcDbVertex
100
AcDb2dVertex
 10
171.576996
 20
436.848389
 30
0.0
  0
VERTEX
  5
1E0
330
1DE
100
AcDbEntity
  8
0
370
     0
100
AcDbVertex
100
AcDb2dVertex
 10
172.254425
 20
436.170959
 30
0.0
  0
SEQEND
  5
1E1
330
1DE
100
AcDbEntity
  8
0
 62
     7
370
    13
  0
POLYLINE
  5
1E2
330
1F
100
AcDbEntity
  8
0
 62
     7
370
    13
100
AcDb2dPolyline
 66
     1
 10
0.0
 20
0.0
 30
0.0
  0
VERTEX
  5
1E3
330
1E2
100
AcDbEntity
  8
0
370
     0
100
AcDbVertex
100
AcDb2dVertex
 10
172.706024
 20
436.170959
 30
0.0
  0
VERTEX
  5
1E4
330
1E2
100
AcDbEntity
  8
0
370
     0
100
AcDbVertex
100
AcDb2dVertex
 10
173.383453
 20
436.848389
 30
0.0
  0
SEQEND
  5
1E5
330
1E2
100
AcDbEntity
  8
0
 62
     7
370
    13
  0
POLYLINE
  5
1E6
330
1F
100
AcDbEntity
  8
0
 62
     7
370
    13
100
AcDb2dPolyline
 66
     1
 10
0.0
 20
0.0
 30
0.0
  0
VERTEX
  5
1E7
330
1E6
100
AcDbEntity
  8
0
370
     0
100
AcDbVertex
100
AcDb2dVertex
 10
173.383453
 20
437.299988
 30
0.0
  0
VERTEX
  5
1E8
330
1E6
100
AcDbEntity
  8
0
370
     0
100
AcDbVertex
100
AcDb2dVertex
 10
172.706024
 20
437.977417
 30
0.0
  0
SEQEND
  5
1E9
330
1E6
100
AcDbEntity
  8
0
 62
     7
370
    13
  0
POLYLINE
  5
1EA
330
1F
100
AcDbEntity
  8
0
 62
     7
370
    13
100
AcDb2dPolyline
 66
     1
 10
0.0
 20
0.0
 30
0.0
  0
VERTEX
  5
1EB
330
1EA
100
AcDbEntity
  8
0
370
     0
100
AcDbVertex
100
AcDb2dVertex
 10
172.254425
 20
436.170959
 30
0.0
  0
VERTEX
  5
1EC
330
1EA
100
AcDbEntity
  8
0
370
     0
100
AcDbVertex
100
AcDb2dVertex
 10
172.706024
 20
436.170959
 30
0.0
  0
SEQEND
  5
1ED
330
1EA
100
AcDbEntity
  8
0
 62
     7
370
    13
  0
POLYLINE
  5
1EE
330
1F
100
AcDbEntity
  8
0
 62
     7
370
    13
100
AcDb2dPolyline
 66
     1
 10
0.0
 20
0.0
 30
0.0
  0
VERTEX
  5
1EF
330
1EE
100
AcDbEntity
  8
0
370
     0
100
AcDbVertex
100
AcDb2dVertex
 10
171.576996
 20
436.848389
 30
0.0
  0
VERTEX
  5
1F0
330
1EE
100
AcDbEntity
  8
0
370
     0
100
AcDbVertex
100
AcDb2dVertex
 10
171.576996
 20
437.299988
 30
0.0
  0
SEQEND
  5
1F1
330
1EE
100
AcDbEntity
  8
0
 62
     7
370
    13
  0
POLYLINE
  5
1F2
330
1F
100
AcDbEntity
  8
0
 62
     7
370
    13
100
AcDb2dPolyline
 66
     1
 10
0.0
 20
0.0
 30
0.0
  0
VERTEX
  5
1F3
330
1F2
100
AcDbEntity
  8
0
370
     0
100
AcDbVertex
100
AcDb2dVertex
 10
172.254425
 20
437.977417
 30
0.0
  0
VERTEX
  5
1F4
330
1F2
100
AcDbEntity
  8
0
370
     0
100
AcDbVertex
100
AcDb2dVertex
 10
172.706024
 20
437.977417
 30
0.0
  0
SEQEND
  5
1F5
330
1F2
100
AcDbEntity
  8
0
 62
     7
370
    13
  0
POLYLINE
  5
1F6
330
1F
100
AcDbEntity
  8
0
 62
     7
370
    13
100
AcDb2dPolyline
 66
     1
 10
0.0
 20
0.0
 30
0.0
  0
VERTEX
  5
1F7
330
1F6
100
AcDbEntity
  8
0
370
     0
100
AcDbVertex
100
AcDb2dVertex
 10
168.41571
 20
458.16452
 30
0.0
  0
VERTEX
  5
1F8
330
1F6
100
AcDbEntity
  8
0
370
     0
100
AcDbVertex
100
AcDb2dVertex
 10
168.41571
 20
447.777405
 30
0.0
  0
VERTEX
  5
1F9
330
1F6
100
AcDbEntity
  8
0
370
     0
100
AcDbVertex
100
AcDb2dVertex
 10
159.383453
 20
455.454834
 30
0.0
  0
VERTEX
  5
1FA
330
1F6
100
AcDbEntity
  8
0
370
     0
100
AcDbVertex
100
AcDb2dVertex
 10
166.157654
 20
455.454834
 30
0.0
  0
VERTEX
  5
1FB
330
1F6
100
AcDbEntity
  8
0
370
     0
100
AcDbVertex
100
AcDb2dVertex
 10
173.383453
 20
455.454834
 30
0.0
  0
SEQEND
  5
1FC
330
1F6
100
AcDbEntity
  8
0
 62
     7
370
    13
  0
LINE
  5
1FD
330
1F
100
AcDbEntity
  8
0
 62
     7
370
    13
100
AcDbLine
 10
226.5
 20
217.300003
 30
0.0
 11
173.383453
 21
217.300003
 31
0.0
  0
LINE
  5
1FE
330
1F
100
AcDbEntity
  8
0
 62
     7
370
    13
100
AcDbLine
 10
226.5
 20
623.700012
 30
0.0
 11
173.383453
 21
623.700012
 31
0.0
  0
POLYLINE
  5
1FF
330
1F
100
AcDbEntity
  8
0
 62
     7
370
    13
100
AcDb2dPolyline
 66
     1
 10
0.0
 20
0.0
 30
0.0
  0
VERTEX
  5
200
330
1FF
100
AcDbEntity
  8
0
370
     0
100
AcDbVertex
100
AcDb2dVertex
 10
175.901093
 20
621.768127
 30
0.0
  0
VERTEX
  5
201
330
1FF
100
AcDbEntity
  8
0
370
     0
100
AcDbVertex
100
AcDb2dVertex
 10
175.383453
 20
623.700012
 30
0.0
  0
VERTEX
  5
202
330
1FF
100
AcDbEntity
  8
0
370
     0
100
AcDbVertex
100
AcDb2dVertex
 10
174.865814
 20
621.768127
 30
0.0
  0
SEQEND
  5
203
330
1FF
100
AcDbEntity
  8
0
 62
     7
370
    13
  0
POLYLINE
  5
204
330
1F
100
AcDbEntity
  8
0
 62
     7
370
    13
100
AcDb2dPolyline
 66
     1
 10
0.0
 20
0.0
 30
0.0
  0
VERTEX
  5
205
330
204
100
AcDbEntity
  8
0
370
     0
100
AcDbVertex
100
AcDb2dVertex
 10
174.865814
 20
219.231857
 30
0.0
  0
VERTEX
  5
206
330
204
100
AcDbEntity
  8
0
370
     0
100
AcDbVertex
100
AcDb2dVertex
 10
175.383453
 20
217.300003
 30
0.0
  0
VERTEX
  5
207
330
204
100
AcDbEntity
  8
0
370
     0
100
AcDbVertex
100
AcDb2dVertex
 10
175.901093
 20
219.231857
 30
0.0
  0
SEQEND
  5
208
330
204
100
AcDbEntity
  8
0
 62
     7
370
    13
  0
LINE
  5
209
330
1F
100
AcDbEntity
  8
0
 62
     7
370
    13
100
AcDbLine
 10
175.383453
 20
217.300003
 30
0.0
 11
175.383453
 21
623.700012
 31
0.0
  0
ARC
  5
20A
330
1F
100
AcDbEntity
  8
0
  6
DASHSPACE
 62
     7
370
    35
100
AcDbCircle
 10
228.5
 20
608.700012
 30
0.0
 40
15.0
100
AcDbArc
 50
90.000003
 51
180.000005
  0
LINE
  5
20B
330
1F
100
AcDbEntity
  8
0
  6
DASHSPACE
 62
     7
370
    35
100
AcDbLine
 10
213.5
 20
608.700012
 30
0.0
 11
213.5
 21
232.300003
 31
0.0
  0
ARC
  5
20C
330
1F
100
AcDbEntity
  8
0
  6
DASHSPACE
 62
     7
370
    35
100
AcDbCircle
 10
228.5
 20
232.300003
 30
0.0
 40
15.0
100
AcDbArc
 50
180.000005
 51
269.999997
  0
LINE
  5
20D
330
1F
100
AcDbEntity
  8
0
  6
DASHSPACE
 62
     7
370
    35
100
AcDbLine
 10
228.5
 20
217.300003
 30
0.0
 11
960.5
 21
217.300003
 31
0.0
  0
ARC
  5
20E
330
1F
100
AcDbEntity
  8
0
  6
DASHSPACE
 62
     7
370
    35
100
AcDbCircle
 10
960.5
 20
232.300003
 30
0.0
 40
15.0
100
AcDbArc
 50
269.999997
 51
0.0
  0
LINE
  5
20F
330
1F
100
AcDbEntity
  8
0
  6
DASHSPACE
 62
     7
370
    35
100
AcDbLine
 10
975.5
 20
232.300003
 30
0.0
 11
975.5
 21
608.700012
 31
0.0
  0
ARC
  5
210
330
1F
100
AcDbEntity
  8
0
  6
DASHSPACE
 62
     7
370
    35
100
AcDbCircle
 10
960.5
 20
608.700012
 30
0.0
 40
15.0
100
AcDbArc
 50
0.0
 51
90.000003
  0
LINE
  5
211
330
1F
100
AcDbEntity
  8
0
  6
DASHSPACE
 62
     7
370
    35
100
AcDbLine
 10
960.5
 20
623.700012
 30
0.0
 11
228.5
 21
623.700012
 31
0.0
  0
LINE
  5
212
330
1F
100
AcDbEntity
  8
0
  6
DASHSPACE
 62
     7
370
    35
100
AcDbLine
 10
960.5
 20
628.700012
 30
0.0
 11
228.5
 21
628.700012
 31
0.0
  0
ARC
  5
213
330
1F
100
AcDbEntity
  8
0
  6
DASHSPACE
 62
     7
370
    35
100
AcDbCircle
 10
228.5
 20
608.700012
 30
0.0
 40
20.0
100
AcDbArc
 50
90.000003
 51
180.000005
  0
LINE
  5
214
330
1F
100
AcDbEntity
  8
0
  6
DASHSPACE
 62
     7
370
    35
100
AcDbLine
 10
208.5
 20
608.700012
 30
0.0
 11
208.5
 21
232.300003
 31
0.0
  0
ARC
  5
215
330
1F
100
AcDbEntity
  8
0
  6
DASHSPACE
 62
     7
370
    35
100
AcDbCircle
 10
228.5
 20
232.300003
 30
0.0
 40
20.0
100
AcDbArc
 50
180.000005
 51
269.999997
  0
LINE
  5
216
330
1F
100
AcDbEntity
  8
0
  6
DASHSPACE
 62
     7
370
    35
100
AcDbLine
 10
228.5
 20
212.300003
 30
0.0
 11
960.5
 21
212.300003
 31
0.0
  0
ARC
  5
217
330
1F
100
AcDbEntity
  8
0
  6
DASHSPACE
 62
     7
370
    35
100
AcDbCircle
 10
960.5
 20
232.300003
 30
0.0
 40
20.0
100
AcDbArc
 50
269.999997
 51
0.0
  0
LINE
  5
218
330
1F
100
AcDbEntity
  8
0
  6
DASHSPACE
 62
     7
370
    35
100
AcDbLine
 10
980.5
 20
232.300003
 30
0.0
 11
980.5
 21
608.700012
 31
0.0
  0
ARC
  5
219
330
1F
100
AcDbEntity
  8
0
  6
DASHSPACE
 62
     7
370
    35
100
AcDbCircle
 10
960.5
 20
608.700012
 30
0.0
 40
20.0
100
AcDbArc
 50
0.0
 51
90.000003
  0
ENDSEC
  0
SECTION
  2
OBJECTS
  0
DICTIONARY
  5
C
330
0
100
AcDbDictionary
281
     1
  3
ACAD_GROUP
350
D
  3
ACAD_LAYOUT
350
1A
  3
ACAD_MLINESTYLE
350
17
  3
ACAD_PLOTSETTINGS
350
19
  3
ACAD_PLOTSTYLENAME
350
E
  3
ACAD_SCALELIST
350
47
  0
DICTIONARY
  5
D
102
{ACAD_REACTORS
330
C
102
}
330
C
100
AcDbDictionary
281
     1
  0
DICTIONARY
  5
1A
102
{ACAD_REACTORS
330
C
102
}
330
C
100
AcDbDictionary
281
     1
  3
Layout1
350
1E
  3
Layout2
350
26
  3
Model
350
22
  0
DICTIONARY
  5
17
102
{ACAD_REACTORS
330
C
102
}
330
C
100
AcDbDictionary
281
     1
  3
Standard
350
18
  0
DICTIONARY
  5
19
102
{ACAD_REACTORS
330
C
102
}
330
C
100
AcDbDictionary
281
     1
  0
ACDBDICTIONARYWDFLT
  5
E
102
{ACAD_REACTORS
330
C
102
}
330
C
100
AcDbDictionary
281
     1
  3
Normal
350
F
100
AcDbDictionaryWithDefault
340
F
  0
DICTIONARY
  5
47
102
{ACAD_REACTORS
330
C
102
}
330
C
100
AcDbDictionary
281
     1
  3
A0
350
48
  3
A1
350
49
  3
A2
350
4A
  3
A3
350
4B
  3
A4
350
4C
  3
A5
350
4D
  3
A6
350
4E
  3
A7
350
4F
  3
A8
350
50
  3
A9
350
51
  3
B0
350
52
  3
B1
350
53
  3
B2
350
54
  3
B3
350
55
  3
B4
350
56
  3
B5
350
57
  3
B6
350
58
  3
B7
350
59
  3
B8
350
5A
  3
B9
350
5B
  3
C0
350
5C
  3
C1
350
5D
  3
C2
350
5E
  3
C3
350
5F
  3
C4
350
60
  3
C5
350
61
  3
C6
350
62
  3
C7
350
63
  3
C8
350
64
  3
C9
350
65
  3
D0
350
66
  3
D1
350
67
  3
D2
350
68
  0
LAYOUT
  5
1E
102
{ACAD_REACTORS
330
1A
102
}
330
1A
100
AcDbPlotSettings
  1

  2
none_device
  4

  6

 40
0.0
 41
0.0
 42
0.0
 43
0.0
 44
0.0
 45
0.0
 46
0.0
 47
0.0
 48
0.0
 49
0.0
140
0.0
141
0.0
142
1.0
143
1.0
 70
  4784
 72
     0
 73
     0
 74
     5
  7

 75
    16
147
1.0
148
0.0
149
0.0
100
AcDbLayout
  1
Layout1
 70
     1
 71
     1
 10
0.0
 20
0.0
 11
420.0
 21
297.0
 12
0.0
 22
0.0
 32
0.0
 14
0.0
 24
0.0
 34
0.0
 15
982.431885
 25
715.687622
 35
2.0
146
0.0
 13
0.0
 23
0.0
 33
0.0
 16
1.0
 26
0.0
 36
0.0
 17
0.0
 27
1.0
 37
0.0
 76
     0
330
1B
  0
LAYOUT
  5
26
102
{ACAD_REACTORS
330
1A
102
}
330
1A
100
AcDbPlotSettings
  1

  2
none_device
  4

  6

 40
0.0
 41
0.0
 42
0.0
 43
0.0
 44
0.0
 45
0.0
 46
0.0
 47
0.0
 48
0.0
 49
0.0
140
0.0
141
0.0
142
1.0
143
1.0
 70
  4784
 72
     0
 73
     0
 74
     5
  7

 75
    16
147
1.0
148
0.0
149
0.0
100
AcDbLayout
  1
Layout2
 70
     1
 71
     2
 10
0.0
 20
0.0
 11
0.0
 21
0.0
 12
0.0
 22
0.0
 32
0.0
 14
0.0
 24
0.0
 34
0.0
 15
0.0
 25
0.0
 35
0.0
146
0.0
 13
0.0
 23
0.0
 33
0.0
 16
1.0
 26
0.0
 36
0.0
 17
0.0
 27
1.0
 37
0.0
 76
     0
330
23
  0
LAYOUT
  5
22
102
{ACAD_REACTORS
330
1A
102
}
330
1A
100
AcDbPlotSettings
  1

  2
none_device
  4
Letter_(8.50_x_11.00_Inches)
  6

 40
6.35
 41
6.35
 42
6.350005
 43
6.350005
 44
215.9
 45
279.4
 46
0.0
 47
0.0
 48
0.0
 49
0.0
140
0.0
141
0.0
142
1.0
143
1.0
 70
  5808
 72
     0
 73
     0
 74
     0
  7

 75
     0
147
1.0
148
0.0
149
0.0
100
AcDbLayout
  1
Model
 70
     1
 71
     0
 10
0.0
 20
0.0
 11
420.0
 21
297.0
 12
0.0
 22
0.0
 32
0.0
 14
0.0
 24
0.0
 34
0.0
 15
982.431885
 25
715.687622
 35
2.0
146
0.0
 13
0.0
 23
0.0
 33
0.0
 16
1.0
 26
0.0
 36
0.0
 17
0.0
 27
1.0
 37
0.0
 76
     0
330
1F
331
29
  0
MLINESTYLE
  5
18
102
{ACAD_REACTORS
330
17
102
}
330
17
100
AcDbMlineStyle
  2
Standard
 70
     0
  3

 62
   256
 51
90.0
 52
90.0
 71
     2
 49
0.5
 62
   256
  6
BYLAYER
 49
-0.5
 62
   256
  6
BYLAYER
  0
ACDBPLACEHOLDER
  5
F
102
{ACAD_REACTORS
330
E
102
}
330
E
  0
SCALE
  5
48
102
{ACAD_REACTORS
330
47
102
}
330
47
100
AcDbScale
 70
     0
300
1:1
140
1.0
141
1.0
290
     1
  0
SCALE
  5
49
102
{ACAD_REACTORS
330
47
102
}
330
47
100
AcDbScale
 70
     0
300
1:2
140
1.0
141
2.0
290
     0
  0
SCALE
  5
4A
102
{ACAD_REACTORS
330
47
102
}
330
47
100
AcDbScale
 70
     0
300
1:4
140
1.0
141
4.0
290
     0
  0
SCALE
  5
4B
102
{ACAD_REACTORS
330
47
102
}
330
47
100
AcDbScale
 70
     0
300
1:5
140
1.0
141
5.0
290
     0
  0
SCALE
  5
4C
102
{ACAD_REACTORS
330
47
102
}
330
47
100
AcDbScale
 70
     0
300
1:8
140
1.0
141
8.0
290
     0
  0
SCALE
  5
4D
102
{ACAD_REACTORS
330
47
102
}
330
47
100
AcDbScale
 70
     0
300
1:10
140
1.0
141
10.0
290
     0
  0
SCALE
  5
4E
102
{ACAD_REACTORS
330
47
102
}
330
47
100
AcDbScale
 70
     0
300
1:16
140
1.0
141
16.0
290
     0
  0
SCALE
  5
4F
102
{ACAD_REACTORS
330
47
102
}
330
47
100
AcDbScale
 70
     0
300
1:20
140
1.0
141
20.0
290
     0
  0
SCALE
  5
50
102
{ACAD_REACTORS
330
47
102
}
330
47
100
AcDbScale
 70
     0
300
1:30
140
1.0
141
30.0
290
     0
  0
SCALE
  5
51
102
{ACAD_REACTORS
330
47
102
}
330
47
100
AcDbScale
 70
     0
300
1:40
140
1.0
141
40.0
290
     0
  0
SCALE
  5
52
102
{ACAD_REACTORS
330
47
102
}
330
47
100
AcDbScale
 70
     0
300
1:50
140
1.0
141
50.0
290
     0
  0
SCALE
  5
53
102
{ACAD_REACTORS
330
47
102
}
330
47
100
AcDbScale
 70
     0
300
1:100
140
1.0
141
100.0
290
     0
  0
SCALE
  5
54
102
{ACAD_REACTORS
330
47
102
}
330
47
100
AcDbScale
 70
     0
300
2:1
140
2.0
141
1.0
290
     0
  0
SCALE
  5
55
102
{ACAD_REACTORS
330
47
102
}
330
47
100
AcDbScale
 70
     0
300
4:1
140
4.0
141
1.0
290
     0
  0
SCALE
  5
56
102
{ACAD_REACTORS
330
47
102
}
330
47
100
AcDbScale
 70
     0
300
8:1
140
8.0
141
1.0
290
     0
  0
SCALE
  5
57
102
{ACAD_REACTORS
330
47
102
}
330
47
100
AcDbScale
 70
     0
300
10:1
140
10.0
141
1.0
290
     0
  0
SCALE
  5
58
102
{ACAD_REACTORS
330
47
102
}
330
47
100
AcDbScale
 70
     0
300
100:1
140
100.0
141
1.0
290
     0
  0
SCALE
  5
59
102
{ACAD_REACTORS
330
47
102
}
330
47
100
AcDbScale
 70
     0
300
1/128" = 1'-0"
140
0.007812
141
12.0
290
     0
  0
SCALE
  5
5A
102
{ACAD_REACTORS
330
47
102
}
330
47
100
AcDbScale
 70
     0
300
1/64" = 1'-0"
140
0.015625
141
12.0
290
     0
  0
SCALE
  5
5B
102
{ACAD_REACTORS
330
47
102
}
330
47
100
AcDbScale
 70
     0
300
1/32" = 1'-0"
140
0.03125
141
12.0
290
     0
  0
SCALE
  5
5C
102
{ACAD_REACTORS
330
47
102
}
330
47
100
AcDbScale
 70
     0
300
1/16" = 1'-0"
140
0.0625
141
12.0
290
     0
  0
SCALE
  5
5D
102
{ACAD_REACTORS
330
47
102
}
330
47
100
AcDbScale
 70
     0
300
3/32" = 1'-0"
140
0.09375
141
12.0
290
     0
  0
SCALE
  5
5E
102
{ACAD_REACTORS
330
47
102
}
330
47
100
AcDbScale
 70
     0
300
1/8" = 1'-0"
140
0.125
141
12.0
290
     0
  0
SCALE
  5
5F
102
{ACAD_REACTORS
330
47
102
}
330
47
100
AcDbScale
 70
     0
300
3/16" = 1'-0"
140
0.1875
141
12.0
290
     0
  0
SCALE
  5
60
102
{ACAD_REACTORS
330
47
102
}
330
47
100
AcDbScale
 70
     0
300
1/4" = 1'-0"
140
0.25
141
12.0
290
     0
  0
SCALE
  5
61
102
{ACAD_REACTORS
330
47
102
}
330
47
100
AcDbScale
 70
     0
300
3/8" = 1'-0"
140
0.375
141
12.0
290
     0
  0
SCALE
  5
62
102
{ACAD_REACTORS
330
47
102
}
330
47
100
AcDbScale
 70
     0
300
1/2" = 1'-0"
140
0.5
141
12.0
290
     0
  0
SCALE
  5
63
102
{ACAD_REACTORS
330
47
102
}
330
47
100
AcDbScale
 70
     0
300
3/4" = 1'-0"
140
0.75
141
12.0
290
     0
  0
SCALE
  5
64
102
{ACAD_REACTORS
330
47
102
}
330
47
100
AcDbScale
 70
     0
300
1" = 1'-0"
140
1.0
141
12.0
290
     0
  0
SCALE
  5
65
102
{ACAD_REACTORS
330
47
102
}
330
47
100
AcDbScale
 70
     0
300
1-1/2" = 1'-0"
140
1.5
141
12.0
290
     0
  0
SCALE
  5
66
102
{ACAD_REACTORS
330
47
102
}
330
47
100
AcDbScale
 70
     0
300
3" = 1'-0"
140
3.0
141
12.0
290
     0
  0
SCALE
  5
67
102
{ACAD_REACTORS
330
47
102
}
330
47
100
AcDbScale
 70
     0
300
6" = 1'-0"
140
6.0
141
12.0
290
     0
  0
SCALE
  5
68
102
{ACAD_REACTORS
330
47
102
}
330
47
100
AcDbScale
 70
     0
300
1'-0" = 1'-0"
140
12.0
141
12.0
290
     0
  0
ENDSEC
  0
EOF
